>
 >
Brother

Brother Guitar Tabs

Pearl Jam - Brother chords, tabs, tablatures, lyrics

Guitar lessons | Add/correct | Request | Top 50 tabs Artists:  A B C D E F G H I J K L M N O P Q R S T U V W X Y Z 0-9

Brother Guitar Tabs – Pearl Jam

CD, Sheet music, Poster

Do you like Brother? Share with your friends now
Bass TabsTabs
-|---------------------------------|------------------------------------------
-|---------------------------------|------------------------------------------
-|-----------/7--------------------|------------------------------------------
-|--6--------/6--------------------|------------------------------------------
-|--6------------------------------|------------------------------------------
-|--4------------------------------|------------------------------------------
 Intro, G1                       4x                                           

-|---------------------------------|-----4---------4-----------------|--------
-|--4-----7-4----------------------|-------7-4-7b9---7p4-------------|--------
-|--6b8-------6b7r6p4---4h6p4------|-6b8-----------------6-6b7r6p4-6-|--------
-|--------------------6----------6-|---------------------------------|--------
-|---------------------------------|---------------------------------|--------
-|---------------------------------|---------------------------------|--------
 Intro, G2                                                                    

-|-------------------------------------|--------------7---9b11--9vv--7---|----
-|-------------------------------------|-----7-4-7-9----9----------------|----
-|-------------------------------------|-6b8-----------------------------|----
-|-4-----------------------------------|---------------------------------|----
-|---6-4-6-4b5r4-2---2-4-4b5r4p2-4vvv--|---------------------------------|----
-|-----------------4-------------------|---------------------------------|----
                                                                              

-|-----------------7---7-------|----------------------------------------------
-|----4-7p4--7-7b9---9---9r7v--|----------------------------------------------
-|-6b8-----6-------------------|----------------------------------------------
-|-----------------------------|----------------------------------------------
-|-----------------------------|----------------------------------------------
-|-----------------------------|----------------------------------------------
                hold bend-|                                                   

-|--------------|--------------|--------------|----------------------------|--
-|--------------|--------------|--------------|----------------------------|--
-|--------------|--------------|--------------|----------------------------|--
-|-6------4--6--|-6------4--6--|-6------4--6--|--------6-x-x-x-4--6--------|--
-|-6------4--6--|-6------4--6--|-6------4--6--|--------6-x-x-x-4--6--------|--
-|-4------2--4--|-4------2--4--|-4------2--4--|--------4-------2--4--/15\--|--
 Verse, G1                                  with Fill 1                       

-|-------------------|--------------|-------|---------------------------------
-|-x-x-3-3-2h3p2p0---|--------------|-------|---------------------------------
-|-x-x-------------1-|--------------|-------|---------------------------------
-|-------------------|-6------4--6--|-------|---------------------------------
-|-------------------|-6------4--6--|-------|---------------------------------
-|-------------------|-4------2--4--|-/15\--|---------------------------------
 Fill 1 (G2)                      4x                                          

-|---------------|---------|---------------|------|---------------------------
-|-7-/-9--9-9--7-|---------|-7-/-9--9-9--7-|------|---------------------------
-|-6-/-8--8-8--6-|-6p4-----|-6-/-8--8-8--6-|------|---------------------------
-|-4-/-6--6-6--4-|-----4-4-|-4-/-6--6-6--4-|-6-4--|---------------------------
-|---------------|-------4-|---------------|---4--|---------------------------
-|---------------|-------2-|---------------|------|---------------------------
 Chorus, G1       G2        G1              G2                                

-|---------------|---------|---------------|----------------------------------
-|-7-/-9--9-9--7-|---------|-7-/-9--9-9--7-|----------------------------------
-|-6-/-8--8-8--6-|---------|-6-/-8--8-8--6-|----------------------------------
-|-4-/-6--6-6--4-|-6p4---4-|-4-/-6--6-6--4-|----------------------------------
-|---------------|-----4-4-|---------------|----------------------------------
-|---------------|---------|---------------|----------------------------------
 G1               G2        G1                                                

-|--------------|--------------|--------------|-----------------------------|-
-|--------------|--------------|--------------|-----------------------------|-
-|--------------|--------------|--------------|-----------------------------|-
-|-6------4--6--|-6------4--6--|-6------4--6--|--------6-x-x-x-x-4--6-------|-
-|-6------4--6--|-6------4--6--|-6------4--6--|--------6-x-x-x-x-4--6-------|-
-|-4------2--4--|-4------2--4--|-4------2--4--|--------4---------2--4--/15\-|-
 2nd Verse, G1                              with Fill 1                       

-|--------------|------|--------------|--------------|--------------|---------
-|--------------|------|--------------|--------------|--------------|---------
-|--------------|------|--------------|--------------|--------------|---------
-|-6------4--6--|------|-6------4--6--|-6------4--6--|-6------4--6--|---------
-|-6------4--6--|------|-6------4--6--|-6------4--6--|-6------4--6--|---------
-|-4------2--4--|-/15\-|-4------2--4--|-4------2--4--|-4------2--4--|---------
              4x                                                  W/ Fill 1   

-|----------------------|-----------------------------------------------------
-|----------------------|-----------------------------------------------------
-|----------------------|-----------------------------------------------------
-|-6-x-x-x-4--6---------|-----------------------------------------------------
-|-6-x-x-x-4--6---------|-----------------------------------------------------
-|-4-------2--4---/15\--|-----------------------------------------------------
                                                                              

-|----------------|---------|---------------|------|--------------------------
-|-7-/-9--9-9--7--|---------|-7-/-9--9-9--7-|------|--------------------------
-|-6-/-8--8-8--6--|-6p4-----|-6-/-8--8-8--6-|------|--------------------------
-|-4-/-6--6-6--4--|-----4-4-|-4-/-6--6-6--4-|-6-4--|--------------------------
-|----------------|-------4-|---------------|---4--|--------------------------
-|----------------|-------2-|---------------|------|--------------------------
 2nd Chorus, G1    G2        G1              G2                               

-|----------------|----------|----------------|-------------------------------
-|-7-/-9--9-9--7--|----------|-7-/-9--9-9--7--|-------------------------------
-|-6-/-8--8-8--6--|----------|-6-/-8--8-8--6--|-------------------------------
-|-4-/-6--6-6--4--|-6p4-4-4--|-4-/-6--6-6--4--|-------------------------------
-|----------------|-------4--|----------------|-------------------------------
-|----------------|----------|----------------|-------------------------------
  G1               G2         G1                                              

-|----------------|----------|----------------|------|------------------------
-|-7-/-9--9-9--7--|----------|-7-/-9--9-9--7--|------|------------------------
-|-6-/-8--8-8--6--|-6p4------|-6-/-8--8-8--6--|------|------------------------
-|-4-/-6--6-6--4--|-----4-4--|-4-/-6--6-6--4--|-6-4--|------------------------
-|----------------|-------4--|----------------|---4--|------------------------
-|----------------|-------2--|----------------|------|------------------------
 G1                G2         G1               G2                             

-|----------------|----------|----------------|-------------------------------
-|-7-/-9--9-9--7--|----------|-7-/-9--9-9--7--|-------------------------------
-|-6-/-8--8-8--6--|----------|-6-/-8--8-8--6--|-------------------------------
-|-4-/-6--6-6--4--|-6p4---4--|-4-/-6--6-6--4--|-------------------------------
-|----------------|-----6-4--|----------------|-------------------------------
-|----------------|----------|----------------|-------------------------------
  G1               G2         G1                                              

-|----------------|---------------------------------------------------------|-
-|----------------|---------------------------------------------------------|-
-|--------/7------|-7vvvvvvv---7-----7vvvvv-----7vvvv------7vvvv-----7bvvv--|-
-|-6------/6------|-------------------------6---------6----------6----------|-
-|-6--------------|---------------------------------------------------------|-
-|-4--------------|---------------------------------------------------------|-
 Bridge, G1     5x Bridge, G2                                                 

-|-------------------------|-------------|-------------------|----------------
-|--------4----------------|-7p4---5p4---|-7p4---5p4---------|----------------
-|-6------4----4-4---4--4--|-----4-------|------------4h6p4--|----------------
-|-6------4----4-4---4--4--|-------------|-------------------|----------------
-|-4------2----2-2---2--2--|-------------|-------------------|----------------
-|-------------------------|-------------|-------------------|----------------
 Interlude, G1              Interlude, G2                                     

-|-------------------|-----------|--------------7---7-------7----7--|---------
-|-7p4---5p4---4-----|-4---4-----|----------7---7h9-7h9p7---7h9--7--|---------
-|-----4-----4-4h6p4-|-4h6-4h6p4-|-4-6p4-/8---------------8---------|---------
-|-------------------|-----------|----------------------------------|---------
-|-------------------|-----------|----------------------------------|---------
-|-------------------|-----------|----------------------------------|---------
                                                                              

-|-7--7-------------|-7p4-----------------------|-7---7-----7--7------|-------
-|-9--7h9p7----4----|------7p4-----------4---4--|-7h9-7h9p7-7--7h9-7--|-------
-|----------8\-4h6--|--------------4--6--4h6-4--|---------------------|-------
-|------------------|----------4h6--------------|---------------------|-------
-|------------------|---------------------------|---------------------|-------
-|------------------|---------------------------|---------------------|-------
                                                                              

-|-7---------------------|----------------------------------------------------
-|-9p7-------4---4-------|----------------------------------------------------
-|-----8p6\4-4h6-4h6-4---|----------------------------------------------------
-|-----------------------|----------------------------------------------------
-|-----------------------|----------------------------------------------------
-|-----------------------|----------------------------------------------------
                                                                              

-|---------------|-----------------------------------------|------------------
-|---------------|-4-----4-7-4--4--------------------------|------------------
-|---------------|-6b8------------6b7r6p4---4-6-6b7r6-4vv--|------------------
-|-6------4--6---|------------------------6----------------|------------------
-|-6------4--6---|-----------------------------------------|------------------
-|-4------2--4---|-----------------------------------------|------------------
 Solo Rhythm   9x Solo                                                        

-|-----4-------4---4--------------------------------------------|-------------
-|-4-----7p4---7b9---7-4----------------------------------------|-------------
-|-6b8-------6-----------6b7r7p4-6--4---------------------------|-------------
-|------------------------------------6-4-----------------------|-------------
-|----------------------------------------6-4b5r4-2---2-4-4vvv--|-------------
-|--------------------------------------------------4-----------|-------------
                                                                              

-|-16----16-16-16----16-16-------16-19-16----16-19-16----16-19-16----------|--
-|-19b21-------19b21-------19b21----------19----------19----------16h19p16-|--
-|-------------------------------------------------------------------------|--
-|-------------------------------------------------------------------------|--
-|-------------------------------------------------------------------------|--
-|-------------------------------------------------------------------------|--
                                                                              

-|-------------------------------------------------------|--------------------
-|-16----16-16-16----16-16-16---------16-16-16-----16-16-|--------------------
-|-18b20-------18b20-------18b20vvv---------18b20--------|--------------------
-|-------------------------------------------------------|--------------------
-|-------------------------------------------------------|--------------------
-|-------------------------------------------------------|--------------------
                                                                              

-|-------------------19b21--19b21--19--19b21r19-16----16-16-16------------|---
-|-19p16-16-19p16-16-------------------------------19-------19b21----r19\-|---
-|------------------------------------------------------------------------|---
-|------------------------------------------------------------------------|---
-|------------------------------------------------------------------------|---
-|------------------------------------------------------------------------|---
                                                                              

-|----------------------|---|------------------------|---------------------|--
-|-------9-12-9-vv--9-\-|---|------------------------|---------------------|--
-|-11b13----------------|---|-11-/-13--13-13--11-----|-11-/-13--13-13--11--|--
-|----------------------|---|--x--------x--x---x-----|--x--------x--x---x--|--
-|----------------------|---|--9-/-11--11-11---9--9--|--9-/-11--11-11---9--|--
-|----------------------|---|---------------------9--|---------------------|--
                                                                              

-|----------------|--------------|--------19--19----------------------------|-
-|----------------|--------------|-19b21---------21r19-16-------------------|-
-|--------/7------|-------7------|---------------------18b20-18b20r18--16\--|-
-|-6------/6------|-6------------|------------------------------------------|-
-|-6--------------|--------------|------------------------------------------|-
-|-4--------------|--------------|------------------------------------------|-
 G1             8x G2          4x    hold bend-----|                          

-|-----------------4--------------------------------------|-------------------
-|----4-7p4--7b9----7p4-----------------------------------|-------------------
-|-6b8-----6-----------6-6b7r6-4-6-6b7r6-4-6b7r6-4-6bvvv--|-------------------
-|--------------------------------------------------------|-------------------
-|--------------------------------------------------------|-------------------
-|--------------------------------------------------------|-------------------
                                                                              

-|-16-19-19-21-21-21-19-16-21-21-21-19-16-21-16-21-16-21-16--|----------------
-|-----------------------------------------------------------|----------------
-|-----------------------------------------------------------|----------------
-|-----------------------------------------------------------|----------------
-|-----------------------------------------------------------|----------------
-|-----------------------------------------------------------|----------------
                                                                              

-|-19b21--19b21--19b21vvv--|-19b21r19-16--------------------------|-----------
-|-------------------------|-------------19b21--19b21r19-16-------|-----------
-|-------------------------|--------------------------------18-16-|-----------
-|-------------------------|--------------------------------------|-----------
-|-------------------------|--------------------------------------|-----------
-|-------------------------|--------------------------------------|-----------
                            This is a guess                                   

-|-----------------------------------------------------------------|----------
-|---16-18-16--16-19p16--19p16---------19---19------19-------------|----------
-|-18--------18--------18-----18-18b20---20---20-20----20r18--16\--|----------
-|-----------------------------------------------------------------|----------
-|-----------------------------------------------------------------|----------
-|-----------------------------------------------------------------|----------
 So is this...just play fast       Hold bend-------------|                    

-|------------------------------------------------------------------|---------
-|------------------------------------------------------------------|---------
-|-------/7----------------------6-------------4--------------------|---------
-|-6-----/6----------------------6-------------4--------------------|---------
-|-6-----------------------------4-------------2--------------------|---------
-|-4----------------------------------------------------------------|---------
 Outro, G1                                                       End          

-|------------------------------------------------------------------|---------
-|------------------------------/9-7--------------------------------|---------
-|-6b7---6--6b7r6-4-----------4-------\6--4---4-6b7r6-4-------------|---------
-|--------------------4-4-4h6---------------6------------6-\4-------|---------
-|------------------------------------------------------------\4-2--|---------
-|------------------------------------------------------------------|---------
 Outro, G2                                                       End





Comments


Popular Pearl Jam tabs & chords
Rats 2 Bass Tabs
Soon Forget 2 Chords
Corduroy Live Tabs
Garden 1 Tabs
Jeremy 4 Tabs
Let The Records Play Tabs
Marker In The Sand 1 Tabs
No Way Tabs
Off He Goes 1 Tabs
State Of Love And Trust Ukulele


Song lyrics



↑ Back to top | Tablatures and chords are parodies/interpretations of the original songs. You may use it for private study, scholarship, research or language learning purposes only
© 2014 AZChords.com Contact us | Privacy policy | DMCA | Add/correct tabs | Request tabs | Top 50 tabs