>
 >
Breakerfall 1

Breakerfall 1 Guitar Tabs

Pearl Jam - Breakerfall 1 chords, tabs, tablatures, lyrics

Guitar lessons | Add/correct | Request | Top 50 tabs Artists:  A B C D E F G H I J K L M N O P Q R S T U V W X Y Z 0-9

Breakerfall 1 Guitar Tabs – Pearl Jam

CD, Sheet music, Poster

Do you like Breakerfall 1? Share with your friends now
ChordsTabsTabs v2Ukulele
-|-0----0-----0---0-----0-----0-----|--------------------------------|--------|
-|-0----0-----0---0-----0-----0-----|--------------------------------|--------|
-|-1----4-----6---1-----4-----6-----|--------------------------------|--------|
-|-2----5-----7---2-----5-----7-----|-----------2----2---------------|--------|
-|-2----5-----7---2-----5-----7-----|---2----5----5----5-2-0---------|--------|
-|-0----0-----0---0-----0-----0-----|-0----0-----------------3-2b3r2-|--------|
 G1                                                            There's a

-|----------------------------------|-----------------------------------------|
-|----------------------------------|-----------------------------------------|
-|----------------------------------|-----------------------------------------|
-|----------------------------------|-----------------------------------------|
-|----------------2-----------------|-----------------------------------------|
-|-0--------------0-----------------|-----------------------------------------|
 G2

-|--------------------------------|--------------------------------|----------|
-|--------------------------------|--------------------------------|----------|
-|--------------------------------|--------------------------------|----------|
-|-----------2----2---------------|-----------2----2---------------|----------|
-|---2----5----5----5-2-0---------|---2----5----5----5-2-0---------|----------|
-|-0----0-----------------3-2b3r2-|-0----0-----------------3-2b3r2-|----------|
 G1 Girl on a ledge she got nowhere to turn             cause all the

-|--------------------------------|--------------------------------|----------|
-|--------------------------------|--------------------------------|----------|
-|--------------------------------|--------------------------------|----------|
-|-2------------------------------|-2------------------------------|----------|
-|-2------------------------------|-2------------------------------|----------|
-|-0------------------------------|-0------------------------------|----------|
 G2

-|--------------------------------|--------------------------------|----------|
-|--------------------------------|--------------------------------|----------|
-|--------------------------------|--------------------------------|----------|
-|-----------2----2---------------|-----------2----2---------------|----------|
-|---2----5----5----5-2-0---------|---2----5----5----5-2-0---------|----------|
-|-0----0-----------------3-2b3r2-|-0----0-----------------3-2b3r2-|----------|
 G1 Love that she had was just wood that she burned         Now her

-|--------------------------------|--------------------------------|----------|
-|--------------------------------|--------------------------------|----------|
-|--------------------4---4-------|-4-------------2----------------|----------|
-|-2------------------------------|--------------------------------|----------|
-|-2------------------------------|--------------------------------|----------|
-|-0------------------------------|--------------------------------|----------|
 G2

-|--------------------------------|--------------------------------|----------|
-|--------------------------------|--------------------------------|----------|
-|--------------------------------|--------------------------------|----------|
-|-----------2----2---------------|-----------2----2---------------|----------|
-|---2----5----5----5-2-0---------|---2----5----5----5-2-0---------|----------|
-|-0----0-----------------3-2b3r2-|-0----0-----------------3-2b3r2-|----------|
 G1 Life is on fire it's no ones concern she can blame the world prey till

-|--------------------------------|--------------------------------|----------|
-|--------------------------------|--------------------------------|----------|
-|--------------------------------|--------------------------------|----------|
-|-2------------------------------|-5-----------7------------------|----------|
-|-2------------------------------|-5-----------7------------------|----------|
-|-0------------------------------|-3-----------5------------------|----------|
 G2

-|--------------------------------|--------------------------------|----------|
-|--------------------------------|--------------------------------|----------|
-|--------------------------------|--------------------------------|----------|
-|-----------2----2---------------|-----------2----2---------------|----------|
-|---2----5----5----5-2-0---------|---2----5----5----5-2-0---------|----------|
-|-0----0-----------------3-2b3r2-|-0----0-----------------3-2b3r2-|----------|
 G1 Dawn                     but   only love            can break her

-|--------------------------------|--------------------------------|----------|
-|--------------------------------|--------------------------------|----------|
-|--------------------------------|--------------------------------|----------|
-|-2------------------------------|-5-----------7------------------|----------|
-|-2------------------------------|-5-----------7------------------|----------|
-|-0------------3b5--5--/\--------|-3-----------5------------------|----------|
 G1              hold--|

-|---------------------------------------------------|------------------------|
-|---------------------------------------------------|------------------------|
-|---------------------------------------------------|------------------------|
-|-----2-------4-4-4-4-7-7-7--2-------4-4-4-4-7-7-7--|------------------------|
-|-----2-------4-4-4-4-7-7-7--2-------4-4-4-4-7-7-7--|------------------------|
-|-----0-------2-2-2-2-5-5-5--0-------2-2-2-2-5-5-5--|------------------------|
 G1+G2 Fall         break her fall            yeah

-|---------------------------------------------------|------------------------|
-|---------------------------------------------------|------------------------|
-|---------------------------------------------------|------------------------|
-|-----2-------4-4-4-4-7-7-7--2-------4-4-4-4-7-7-7--|------------------------|
-|-----2-------4-4-4-4-7-7-7--2-------4-4-4-4-7-7-7--|------------------------|
-|-----0-------2-2-2-2-5-5-5--0-------2-2-2-2-5-5-5--|------------------------|
 G1+G2 Only love can break her fall          fall

-|--------------------------------|-------------------------------------------|
-|--------------------------------|-------------------------------------------|
-|--------------------------------|-------------------------------------------|
-|-----------2----2---------------|-------------------------------------------|
-|---2----5----5----5-2-0---------|-------------------------------------------|
-|-0----0-----------------3-2b3r2-|-------------------------------------------|
 G1                      It's like she

-|--------------------------------|-------------------------------------------|
-|--------------------------------|-------------------------------------------|
-|----1---------------------------|-------------------------------------------|
-|----2---------------------------|-------------------------------------------|
-|----2---------------------------|-------------------------------------------|
-|-0------------------------------|-------------------------------------------|
 G2

-|--------------------------------|--------------------------------|----------|
-|--------------------------------|--------------------------------|----------|
-|--------------------------------|--------------------------------|----------|
-|-----------2----2---------------|-----------2----2---------------|----------|
-|---2----5----5----5-2-0---------|---2----5----5----5-2-0---------|----------|
-|-0----0-----------------3-2b3r2-|-0----0-----------------3-2b3r2-|----------|
 G1 Lost her invitation to the party on Earth             and she's

-|--------------------------------|--------------------------------|----------|
-|--------------------------------|--------------------------------|----------|
-|--------------------------------|--------------------------------|----------|
-|--------------------------------|--------------------------------|----------|
-|--------------------------------|--------------------------------|----------|
-|-0------------------------------|--------------------------------|----------|
 G2

-|--------------------------------|--------------------------------|----------|
-|--------------------------------|--------------------------------|----------|
-|--------------------------------|--------------------------------|----------|
-|-----------2----2---------------|-----------2----2---------------|----------|
-|---2----5----5----5-2-0---------|---2----5----5----5-2-0---------|----------|
-|-0----0-----------------3-2b3r2-|-0----0-----------------3-2b3r2-|----------|
 G1 Standing outside hating everyone here                    she's

-|--------------------------------|--------------------------------|----------|
-|--------------------------------|---12-12-12-14-12-14b15r14-12---|----------|
-|--------------------------------|---12-12-12-14-12-14b15r14-12---|----------|
-|--------------------------------|------------------------------14|----------|
-|--------------------------------|--------------------------------|----------|
-|-0------------------------------|--------------------------------|----------|
 G2

-|--------------------------------|--------------------------------|----------|
-|--------------------------------|--------------------------------|----------|
-|--------------------------------|--------------------------------|----------|
-|-----------2----2---------------|-----------2----2---------------|----------|
-|---2----5----5----5-2-0---------|---2----5----5----5-2-0---------|----------|
-|-0----0-----------------3-2b3r2-|-0----0-----------------3-2b3r2-|----------|
 G1 Her own disease crying to her doll but only love   can break her

-|--------------------------------|--------------------------------|----------|
-|--------------------------------|--------------------------------|----------|
-|--------------------------------|--------------------------------|----------|
-|--------------------------------|-5----------7-------------------|----------|
-|--------------------------------|-5----------7-------------------|----------|
-|-0------------------------------|-3----------5-------------------|----------|
 G2

-|---------------------------------------------------|------------------------|
-|---------------------------------------------------|------------------------|
-|---------------------------------------------------|------------------------|
-|-----2-------4-4-4-4-7-7-7--2-------4-4-4-4-7-7-7--|------------------------|
-|-----2-------4-4-4-4-7-7-7--2-------4-4-4-4-7-7-7--|------------------------|
-|-----0-------2-2-2-2-5-5-5--0-------2-2-2-2-5-5-5--|------------------------|
 G1+G2 Fall         break her fall

-|---------------------------------------------------|-----------|------------|
-|---------------------------------------------------|-----------|------------|
-|---------------------------------------------------|-----------|------------|
-|-----2-------4-4-4-4-7-7-7--2-------4-4-4-4-7-7-7--|-0h2-2-----|------------|
-|-----2-------4-4-4-4-7-7-7--2-------4-4-4-4-7-7-7--|-----2-----|------------|
-|-----0-------2-2-2-2-5-5-5--0-------2-2-2-2-5-5-5--|-----0-----|------------|
 G1+G2 Only love can break her fall          yeah

-|--0------0-----0-----0----0-----0-----0---------|---------------------------|
-|--0------0-----0-----0----0--0--0-----0---------|---------------------------|
-|--1------4-----6-----1----------4-----6---------|---------------------------|
-|--2------5-----7-----2----------5-----7---------|---------------------------|
-|--2------5-----7-----2----------5-----7---------|---------------------------|
-|--0------0-----0-----0----------0-----0---------|---------------------------|
 G1                    Fall               break her

-|--0------0-----------0----0-----0-----0---------|---------------------------|
-|--0-----12----------12------12-15----17---------|---------------------------|
-|--x---------------------------------------------|---------------------------|
-|--2---------------------------------------------|---------------------------|
-|--2---------------------------------------------|---------------------------|
-|--0---------------------------------------------|---------------------------|
 G2

-|--0------------0----------0------------0-------------0-----------0---------|
-|--0------------0----------0------------0-------------0-----------0---------|
-|--1------------4----------6------------1-------------4-----------6---------|
-|--2------------5----------7------------2-------------5-----------7---------|
-|--2------------5----------7------------2-------------5-----------7---------|
-|--0------------0----------0------------0-------------0-----------0---------|
 G1 Fall         love  oh oh can break her fall      only love can break her

-|--0-----------0----------0-------------0-------------0-----------0---------|
-|--0-----------0----------0-------------0-------------0-----------0---------|
-|--1-----------4----------6-------------1-------------4-----------6---------|
-|--2-----------5----------7-------------2-------------5-----------7---------|
-|--2-----------5----------7-------------2-------------5-----------7---------|
-|--0-----------0----------0-------------0-------------0-----------0---------|
 G1 Fall       oh love love can break her fall  fall love love can break her

-|--0------------0----------0--------------0---------||-----------------------|
-|--0------------0----------0--------------0---------||-----------------------|
-|--1------------4----------6--------------1---------||-----------------------|
-|--2------------5----------7--------------2---------||-----------------------|
-|--2------------5----------7--------------2---------||-----------------------|
-|--0------------0----------0--------------0---------||-----------------------|
 G1 Fall         only love    can break her





Comments


Popular Pearl Jam tabs & chords
Daughter Bass Tabs
Pry, To Bass Tabs
Rockin In The Free World 1 Bass Tabs
Elderly Women Behind The Counter In A Small Town Chords
Just Breathe Chords
The Fixer Chords
Black Lead Tabs
I Am Mine 2 Tabs
In Hiding 2 Tabs
Soon Forget Ukulele


Song lyrics



↑ Back to top | Tablatures and chords are parodies/interpretations of the original songs. You may use it for private study, scholarship, research or language learning purposes only
© 2014 AZChords.com Contact us | Privacy policy | DMCA | Add/correct tabs | Request tabs | Top 50 tabs