» » »

Pearl Jam, Animal Tabs (ver.3)

Artists:  A B C D E F G H I J K L M N O P Q R S T U V W X Y Z # 

Animal Tabs (ver.3)

Pearl Jam Tabs
 Rating:
4/5 (4 votes)
Animal lessons Tabs too difficult? Try these video lessons and learn fast
1
                ANIMAL.TAB



    ______  ===___   ________  ==========
    |    |  | |  |   | |    |  |  |  |  |
e:-----------------------------------------|
B:-----------------------------------------|
G:------------------------------------PO---|
D:-----------------------------7-----(^^)--|
A:--------------------------------6--5--0--|
E:--5----5----5--5-----5----5--------------|

  This is how the main riff goes.  PO is a pull-off, and the rhythm is
  very weakly shown above the bar.  As far as the second part of the
  verse goes, just hit a D Chord a couple of times like so:

e:-----------|
B:-----7-----|
G:-----7-----|
D:-----7-----|
A:-----5-----|
E:-----------|


And then for the chorus.  Each one of these chords is a measure, and you can
strum them at will.  Listen to the record for the correct feel.

 CHORUS
 ======

e:--5--------|--8--------|--10-------|--3--------|
B:--5--------|--8--------|--10-------|--3--------|
G:--6--------|--9--------|--11-------|--4--------|
D:--7--------|--7--------|--10-------|--5--------|
A:--7--------|--7--------|--10-------|--5--------|
E:--5--------|--5--------|--8--------|--3--------|



Here's the outro lead guitar track:

    ________   ________   ________   _______
    | | |  |   | |  | |   |  | | |   | | | |
e:--x-x-17-x---x-17-x-x---17-x-x-x---x-x-x-x--|
B:--x-x-17-x---x-17-x-x---17-x-x-x---x-x-x-x--|
G:--x-x-14-x---x-14-x-x---14-x-x-x---x-x-x-x--|
D:--------------------------------------------|
A:--------------------------------------------|
E:--------------------------------------------|


    ________   ________   ____===   ________
    | | |  |   | |  | |   |   | |   | | |  |
e:--x-x-17-x---x-17-x-x---17--x-x---x-x-20-20--|
B:--x-x-17-x---x-17-x-x---17--x-x---x-x-20-20--|
G:--x-x-14-x---x-14-x-x---14--x-x---x-x-17-17--|
D:---------------------------------------------|
A:---------------------------------------------|
E:---------------------------------------------|


As far as the solo goes.... it's in A with a lot of Wah...  I don't feel
 like taking the time to transcribe it.  Although I recommend you just
 kind of find the right key and play it.  That's usually the way I do with
 my band.  Just know what key you're in and sort of jam, remembering the
 overall thematic things.  Have fun with this.  If you need any help or
 any other songs transcribed, let me know...

                                                Brandon
            
Submit corrections

comments powered by Disqus
↑ Back to top | Pearl Jam Tabs for Animal. Lyrics for acoustic guitar and electric guitar. 1 Tablatures and chords are parodies/interpretations of the original songs. You may use it for private study, scholarship, research or language learning purposes only