» » »

P Diddy, Its All About The Benjamins Rock Remix Tabs (ver.1)

Artists:  A B C D E F G H I J K L M N O P Q R S T U V W X Y Z # 

Its All About The Benjamins Rock Remix Tabs (ver.1)

P Diddy Tabs
 Rating:
4/5 (4 votes)
Its All About The Benjamins Rock Remix lessons Tabs too difficult? Try these video lessons and learn fast
1
                standard tuning

main riff (used for puffy's rap and other parts)
|--------------------| |--------------------------|
|--------------------| |-11-11-11---11--11-11-11--|
|-----------------3~-| |-12-12-12---12--12-12-12--|
|-5--5-5--3-5--55-3~-| |--------------------------|
|-5--5-5--3-5--55-1~-| |--------------------------|
|-3--3-3--1-3--33----| |--------------------------|
 guitar 1               guitar 2 (not sure what instrument plays this in real song)


chorus
|---------------------|
|---------------------|
|---------------------|
|-543~------543~------|
|-----43~-------43~---|
|--------6~--------6~-|

intro some raps (listen for the parts)
|----------------------|
|----------------------|
|----------------------|
|----------35-4-3------|
|-----3-4-5-------4-3--|
|-3-6----------------6-|

2nd guys rap
|---------------|
|---------------|
|----4~--3--2~--|
|-5--4~--3--2~--|
|-5--2~--1--0~--|
|-3-------------|

Lil Kims Rap
|---------------|
|---------------|
|---------------|
|-5--4~--3--2~--|
|-5--4~--3--2~--|
|-3--2~--1--0~--|

Notorious BIG's rap consists of the same thing as Lil Kim's but with extreme strumming

Thats basically the whole song (major props to P Diddy and the family,
god I wish Puffy still made music like this)
            
Submit corrections

comments powered by Disqus
↑ Back to top | P Diddy Tabs for Its All About The Benjamins Rock Remix. Lyrics for acoustic guitar and electric guitar. 1 Tablatures and chords are parodies/interpretations of the original songs. You may use it for private study, scholarship, research or language learning purposes only