>
 >
I'll Be Missing You

I'll Be Missing You Guitar Tabs

P Diddy - I'll Be Missing You chords, tabs, tablatures, lyrics

Guitar lessons | Add/correct | Request | Top 50 tabs Artists:  A B C D E F G H I J K L M N O P Q R S T U V W X Y Z 0-9

I'll Be Missing You Guitar Tabs – P Diddy

CD, Sheet music, Poster

Do you like I'll Be Missing You? Share with your friends now
Tabs
Tabulature: MacGyver

The basic pattern is 
Gadd9, Emadd9, Cadd9, C, Dadd9, D, Gadd9
I'm not real sure if that's the chord names or
not but they sound good! 

VERSE/CHORUS:

    Gadd9
E----------------------------------------
B----------------------------------------
G------------4-------------------4-------
D-------7------7----7-------7------7----7
A-----5----5------5-------5----5------5--
E---3-------------------3----------------
            
   Emadd9
E-----------------------------------
B-----------------------------------
G----------0-----------------0------
D------4-----4---4-------4-----4---4
A----2---2-----2-------2---2-----2--
E--0-----------------0--------------
      
    Cadd9    C        Dadd9      D
E---------------------------------------
B---------------------------------------
G-------7----5--------------9---7------7
D-----5--------5---5-----7-------7-----7
A---3------------3-----5-------------5--
E---------------------------------------
  
   Gadd9
E-----------------------------------
B-----------------------------------
G-----------4----------------4------
D-------7-----7---7------7-----7---7
A-----5---5-----5------5---5-----5--
E---3----------------3--------------
  

LYRICS:
Intro: Puff Daddy

I want y'all to check out
This is a Bad Boy tribute to my man the Notorious B.I.G.
which features myself, Faith and 112
Rest in peace B.I.G -- we miss ya

Verse One: Puff Daddy

Seems like yesterday we used to rock the show
I laced the track, you locked the flow
So far from hangin on the block for dough
Notorious they got to know that
Life ain't always what it seems to be
Words can't express what you mean to me
Even though you're gone, we still a team
Through your family, I'll fulfill your dream
In the future, can't wait to see
If you'll open up the gates for me
Reminisce some time, the night they took my friend
Try to black it out, but it plays again
When it's real, feelings hard to conceal
Can't imagine all the pain I feel
I'd give anything to hear half your breath
I know you're living you life -- after death

Chorus: Faith Evans

Every step I take, Every move I make
Every single day, every time I pray -- I'll be missing you
Thinking of the day, when you went away
What a life to take, what a bond to break -- I'll be missing you

Verse Two: Puff Daddy

It's kinda hard with you not around
Know you in heaven smiling down
Watching us while we pray for you
Every day we pray for you
Til the day we meet again
In my heart is where I'll keep you friend
Memories give me the strength I need to proceed
The strength I need to believe
My thoughts B.I.G. I just can't define
Wish i can turn back the hands of time
Us in the 6th, shopping for new clothes and kicks
You and me taking flicks, making hits
Stages they received you on
I still can't believe you're gone
I'd give anything to hear half your breath
I know your living you life -- after death

Chorus

[Faith Evans]
Somebody tell me why, one glad morning
when this life is over
I know -- I'll see your face

Outro: 112

Every night I pray, every step I take
Every move I make, every single day
(repeat 3X)
Every move I make

Chorus





Comments


Popular P Diddy tabs & chords
Bad Boy For Life Bass Tabs
I Dont Wanna Know Chords
Bad Boy Tabs
Bad Boy 4 Life Tabs
Bad Boy For Life 1 Tabs
Bad Boys For Life Tabs
I Need A Girl Tabs
I Need A Girl 1 Tabs
I Need A Girl Part Tabs
It's All About The Benjamins Tabs


Song lyrics



↑ Back to top | Tablatures and chords are parodies/interpretations of the original songs. You may use it for private study, scholarship, research or language learning purposes only
© 2014 AZChords.com Contact us | Privacy policy | DMCA | Add/correct tabs | Request tabs | Top 50 tabs