>
 >
Silence Kit

Silence Kit Guitar Tabs

Pavement - Silence Kit chords, tabs, tablatures, lyrics

Guitar lessons | Add/correct | Request | Top 50 tabs Artists:  A B C D E F G H I J K L M N O P Q R S T U V W X Y Z 0-9

Silence Kit Guitar Tabs – Pavement

CD, Sheet music, Poster

Do you like Silence Kit? Share with your friends now
Tabs

Tuning: DADABE

taken from a fan site

Intro (0:00):

E|-------5-----------------------5----10b12r10-----|
B|-------------------------------------------------|
A|--------------------0------5h7-------------------|
D|-2------------0h2--------------------------------|
A|-0-----------------------------------------------|
D|-------------------------------------------------|


E|-----5-------------------------------------------------|
B|--------------3-----------------4-4-4------------------|
A|-5h7------0h2-------------------3-3-3------------------|
D|-------------------------11\---------------------------|
A|--------------------5/---------------------------------|
D|-------------------------------------------------------|
                                               Okay Scott


(0:19):

E|----------------------------------------------------------|
B|----------------------------------------------------------|
A|--4--4---5----7--7--6------5--5--5--5--5--5-/-7--5---4----|
D|--2--2---4----7--7--7------4--4--4--4--4--4-/-6--4---2----|
A|--0--0---0----0--0--0------0--0--0--0--0--0------0---0----|
D|----------------------------------------------------------|
   [Play twice]


E|---------------------------------------------------------------------|
B|------------------------------5-/-7----------------------------------|
A|--3-----3--2--0--5---4--4--4---------3-----3--2--0-------------------|
D|--4----------------------------------4---------------0---2--2---2/---|
A|--5----------------------------------5-------------------------------|
D|---------------------------------------------------------------------|


E|-------------------------------------------------------------|
B|-----------------/9---7------5-/-7---------------------------|
A|--3-----3--2--0-----------5---------3-----3-3--2--0----------|
D|--4---------------------------------4----------------2-------|
A|--5---------------------------------5----------------0-------|
D|-------------------------------------------------------------|


E|--------------------------|-----------------------|
B|--3--3--3--3--3--3--3-----|--3--3--3--3--3--3-----|
A|--2--4--2--4--4--4--2-----|--2--4--2--4--4--2--0--|
D|--------------------------|-----------------------|
A|--------------------------|-----------------------|
D|--------------------------|-----------------------|
       [Play 3 times]



Verse (1:06):

E|--0------------------------------------0-----------------------------------|
B|--2----------5-------------------------2----------------5------------------|
A|--0----------0-------------------------0----------------0------------------|
D|--2----------x-------------------------2----------------x------------------|
A|--0----------5-------------------------0----------------5------------------|
D|-------------0------------------------------------------0------------------|
    Silent kid no one to remind you, you got no heels, no reels to remind you


E|--0-----------------------------------------------------------------|
B|--2-----------------------------------------------------------------|
A|--0------------------------------------------------3----------------|
D|--2----------------2-------------------4-----------4----------------|
A|--0----------------2-------------------4-----------5----------------|
D|-------------------2-------------------4----------------------------|
    Silent kid don't take your pawn shop home on the road god damn you


E|--0-------------------------------------------------------|
B|--2-----------------------------------5-----2-------------|
A|--0-----------------------------------0-----0-------------|
D|--2----------------2------------------x-----2-------------|
A|--0----------------2------------------5-----0-------------|
D|-------------------2--------------------------------------|
    Silent kid don't lose your graceful ton - gue


E|--------------------------------------------------------------------------------|
B|-3------------------------------------------------------------------------------|
A|-2------------------------------------------------------------------------------|
D|-4--------------------------------------------0---------------------------------|
A|-2--------------------------------------------0---------------------------------|
D|----------------------------------------------0---------------------------------|
   This is the city life, this is the city life come on, let's talk about leaving



Verse (1:43):

E|--0--------------------------------------0------------------------------------------------|
B|--2----------5---------------------------2--------------------5---------------------------|
A|--0----------0---------------------------0--------------------0---------------------------|
D|--2----------x---------------------------2--------------------x---------------------------|
A|--0----------5---------------------------0--------------------5---------------------------|
D|-------------0------------------------------------------------0---------------------------|
    C'mon now  talk about your family your sister's cursed your father's old and damned yeah


E|--0------------------------------------------------------------------|
B|--2------------------------------------------------------------------|
A|--0------------------------------------------------3-----3----3-2-0--|
D|--2----------------2---------------4---------------4-----------------|
A|--0----------------2---------------4---------------5-----------------|
D|-------------------2---------------4---------------------------------|
    Silent kid don't listen to the   grandmother's advice about ???


E|--0---------------------------------------------------------|
B|--2---------------------------------------------------------|
A|--0------------------------------------3--------------------|
D|--2----------------2-------------0--------0-----------------|
A|--0----------------2-------------0--------0-----------------|
D|-------------------2-------------0--------------------------|
    Silent kid don't listen to the ???             hand me the



Outro (2:14):

E|----------------------------------------------------------------------------------------|
B|----------------------------------------------------------------------------------------|
A|---------------------------------4-2-4-2-4-2-4-2-0----4-2-4-2-4-2-0----4-----4-----4----|
D|--0-----------2------------4------------------------------------------------------------|
A|--0-----------0------------2------------------------------------------------------------|
D|--0-----------------------------------------------------------------------2-----2-----2-|
    Drum stick, snare, kick, blues call upon ????                                  into the


E|----------------------------------------------------------------------------------------|
B|----------------------------------------------------------------------------------------|
A|---------------------------4-2-4-2-4-2-4-2-0----4-2-4-2-4-2-4-2-0----5p2-4-2-4-2-4-2-0--|
D|-------------2-------4------------------------------------------------------------------|
A|-------------0-------2------------------------------------------------------------------|
D|--0-------------------------------------------------------------------------------------|
    Spotlight, ecstasy feels      so              warm        inside   'til       five hours


E|----------------------------------------------------------------3-----||
B|----------------------------------------------------------------2-----||
A|--4-2-4-2-4-2-4b5-----------------------------------------------0-----||
D|----------------------------------------------------------------2-----||
A|-----------------------------0-----------0-------0--------------0-----||
D|-----------------------------0-----------0-------0--------------------||
    Later I'm         chewin'     screwin'    my - self   with my hand





Comments


Popular Pavement tabs & chords
Purfume - V Bass Tabs
Ann Dont Cry Chords
Box Elder Chords
Gold Soundz 1 Chords
Trigger Cut Chords
Easily Fooled Tabs
Elevate Me Later Tabs
No Life Singed Her Intro Tabs
No Tan Lines Ukulele
Zurich Is Stained Ukulele


Song lyrics



↑ Back to top | Tablatures and chords are parodies/interpretations of the original songs. You may use it for private study, scholarship, research or language learning purposes only
© 2014 AZChords.com Contact us | Privacy policy | DMCA | Add/correct tabs | Request tabs | Top 50 tabs