>
 >
Silent Kit

Silent Kit Guitar Tabs

Pavement - Silent Kit chords, tabs, tablatures, lyrics

Guitar lessons | Add/correct | Request | Top 50 tabs Artists:  A B C D E F G H I J K L M N O P Q R S T U V W X Y Z 0-9

Silent Kit Guitar Tabs – Pavement

CD, Sheet music, Poster

Do you like Silent Kit? Share with your friends now
Tabs
Pavement
Crooked Rain, Crooked Rain
Stephen Malkmus

D5 00023X (or it might be a full D major chord, I don't know which)

A  X0222X      Bmin X24432     E5 22245X     F#5 44467X


Inro, after the messy part

E--------------------------------------------------------------------|
B-2-2---3---------5-5---4--------3-3-3-3-3-3-4-3---2-----------------|
G-2-2---2---------2-2---2--------2-2-2-2-2-2-2-2---2-----------------|  repeat
D-2-2---2---------2-2---2--------2-2-2-2-2-2-2-2---2-----------------|
A-0-0---0---------0-0---0--------0-0-0-0-0-0-0-0---0-----------------|
D--------------------------------------------------------------------|

 D5           A5               D5              A5
E--------------------------------------------------------------------|
B-------------3---2-2-2-5-/7-----------------------------------------|
G-5---5-5-4-2------------------5---5-5-5-5-4-2-----------------------|
D----------------------------------------------0---2-2--2------------|
A--------------------------------------------------------------------|
D--------------------------------------------------------------------|

 D5            A5              D5              A5
E--------------------------------------------------------------------|
B---------------/9-7-3-5-/7------------------------------------------|
G-5-----5-4-2------------------5---5-5-5-5-4-2-2---------------------|
D----------------------------------------------2---------------------|
A----------------------------------------------0---------------------|
D--------------------------------------------------------------------|

 Bmin                             D5
E--------------------------------------------------------------------|
B--------------------------------------------------------------------|
G-4-4-6-4-6-6-6-4-4-4-6-4-6-6-6-4-4-4-6-4-6-6-6-4-4-4-6-4-6-6-4-2----|
D--------------------------------------------------------------------|
A--------------------------------------------------------------------|
D--------------------------------------------------------------------|

For this part you can also play the open D string with the 4s and 6s
if you want

verse

A           D5
Silence kid no one to remind you

A                  D5
You got no heel no reels to remind you

A                E5                 F#5         D5
Silent kid don't take your pawnshop home on the road god damn you

A                E5                 D5   A
Silent kid don't lose your graceful tone

For the "this is the city life" part, one guitar plays that 4 and 6th fret
thing, and the other plays the Bmin and D5 chords exactly like before

2nd verse: same as the first

the 4/4 section of the song ends on an A chord, then the song changes
to 3/4 time

A           D5         A          Bmin                   D5       A
Hand me the drum stick snare kick blues call upon I knew myself in

A        D5        A       Bmin  D5
Into the spotlight ecstasy feels

A                   Bmin                 D5     D5      D5     D5       A
so warm inside till five hours later I am chewin screwin myself with my hand

Thats it





Comments


Popular Pavement tabs & chords
Shady Lane 2 Bass Tabs
Stereo Bass Tabs
Box Elder Chords
Heaven Is A Truck Chords
In The Mouth A Desert Tabs
Jackals, False Grails: The Lonesome Era Tabs
Shady Lane 1 Tabs
Transport Is Arranged Tabs
Gold Sounds Ukulele
Starlings Of The Slipstream Ukulele


Song lyrics



↑ Back to top | Tablatures and chords are parodies/interpretations of the original songs. You may use it for private study, scholarship, research or language learning purposes only
© 2014 AZChords.com Contact us | Privacy policy | DMCA | Add/correct tabs | Request tabs | Top 50 tabs