» » »

Motion Suggests Tabs (ver.1)

Artists:  A B C D E F G H I J K L M N O P Q R S T U V W X Y Z # 

Motion Suggests Tabs (ver.1)

Pavement
Rating:
0/5 (0 votes)

Hard to play? Try these video lessons and learn fast.
                Wowee Zowee
Key:D major

"Carnival" Intro
E----------------------:---------------------
B----------------------:-12-14-12-13-11-9-12-
G-4-5-6-7-8-9--4-5-6-7-:---------------------
D----------------------:---------------------
A----------------------:---------------------
E----------------------:---------------------

Bm
I traced my family line
G
It ends up where the
D
Window-passing grainy days
E
Forgetting she’s away
G
Here’s the straight and narrow: 
G
Brought my wheelbarrow
D
And it’s filled with the lies and the dirt and the hurt
E                       G            D
But I won’t need someone to let me be
E                  G              D
I won’t need someone to let me be
Bm
Up up the counting thrones
G
And the voice could soothe your
D                         E
Captivate the senses like a ginger ale rain
G
Those who’ve got the mirror
G
Curse the tainted pharaohs, take off!
D
expect fun, you might learn how it runs
E                      G             D
But I won’t need someone to let me be
E                    G               D
No I won’t need someone to let me be [x2]
No I won’t need someone to let me go
Let me breathe

Solo
E------------------------------------------------5--5--5-7-5-------------------------
B-5-3--7------------------7-5----7-5-7/8/9-7-8-9--6-----6---6-5---5------------------
G-------7--------------5-----5-----------------------4---------7---7-----------------
D----4---4--3-2-0-------4------4--------------------------------4---4----------------
A----------------0-0h2---------------------------------------------------------------
E------------------------------------------------------------------------------------
            
Hard to play? Try these video lessons and learn fast. | Correct




comments powered by Disqus
↑ Back to top | Tablatures and chords are parodies/interpretations of the original songs. You may use it for private study, scholarship, research or language learning purposes only