» » »

Pavement, Kris Kraft Tabs (ver.1)

Artists:  A B C D E F G H I J K L M N O P Q R S T U V W X Y Z # 

Kris Kraft Tabs (ver.1)

Pavement Tabs
Rating:
5/5 (1 vote)
Kris Kraft lessons Tabs too difficult? Try these video lessons and learn fast
                Pavement - Kris Kraft


Intro (0:00, 0:58, 1:57):

E |-------------------|--------------|-------------------------|
B |-------------------|--------------|-------------------------|
F#|----0---0----------|----0---0-----|----0---0---0---0---0-5--|
D |--3---3---0--------|--3---3-------|--3---3---3---3---3------|
A |-------------0--0--|----------0---|-------------------------|
D |-------------0--0--|----------0---|-------------------------|
      [Play twice]      [Play twice]

E |-----------------------------------|
B |-----------------------------------|
F#|-8--8--x-x-x-x-8--7---7--x-x-x-x-7-|
D |-7--7--x-x-x-x-7--7---7--x-x-x-x-7-|
A |-7--7--x-x-x-x-7--7---7--x-x-x-x-7-|
D |-7--7--x-x-x-x-7--7---7--x-x-x-x-7-|


E |------------------------------------------|
B |------------------------------------------|
F#|-x-x-7--8--8--x-x-x-x-8--10---10-10-10-10-|
D --x-x-7--7--7--x-x-x-x-7---7----7--7--7--7-|
A |-x-x-7--7--7--x-x-x-x-7---7----7--7--7--7-|
D --x-x-7--7--7--x-x-x-x-7---7----7--7--7--7-|


Verse (0:30, 1:28):

E |--------------------------------|
B |-12-12--15--15------------------|
F#|-12-12--12--12---12-12--12--12--|
D |-12-12--12--12---12-14--14--12--|
A |-----------------12-12--12--12--|
D |--------------------------------|
           [Play 8 times]

E |-----------------------------------|
B |-----------------------------------|
F#|-8--8--x-x-x-x-8--7---7--x-x-x-x-7-|
D |-7--7--x-x-x-x-7--7---7--x-x-x-x-7-|
A |-7--7--x-x-x-x-7--7---7--x-x-x-x-7-|
D |-7--7--x-x-x-x-7--7---7--x-x-x-x-7-|


E |------------------------------------------|
B |------------------------------------------|
F#|-x-x-7--8--8--x-x-x-x-8--10---10-10-10-10-|
D --x-x-7--7--7--x-x-x-x-7---7----7--7--7--7-|
A |-x-x-7--7--7--x-x-x-x-7---7----7--7--7--7-|
D --x-x-7--7--7--x-x-x-x-7---7----7--7--7--7-|

Interlude (1:47):

E |------------------------------|--------------------------------|
B |------------------------------|--------------------------------|
F#|-12-12--12--12----------------|-13-13--13--13------------------|
D |-11-13--13--11----------------|-12-14--14--12------------------|
A |-11-11--11--11---9-11--11--9--|-12-12--12--12---10-12--12--10--|
D |------------------------------|--------------------------------|
            

comments powered by Disqus
↑ Back to top | Pavement Tabs for Kris Kraft. Lyrics for acoustic guitar and electric guitar. Tablatures and chords are parodies/interpretations of the original songs. You may use it for private study, scholarship, research or language learning purposes only