>
 >
Sense Una Donna

Sense Una Donna Guitar Tabs

Paul Young - Sense Una Donna chords, tabs, tablatures, lyrics

Guitar lessons | Add/correct | Request | Top 50 tabs Artists:  A B C D E F G H I J K L M N O P Q R S T U V W X Y Z 0-9

Sense Una Donna Guitar Tabs – Paul Young

CD, Sheet music, Poster

Do you like Sense Una Donna? Share with your friends now
Tabs
Sense una Dona  Paul Young & Zuchero

A	577655
A/Ab	477655
Bm	799777
D	X57775
D/C#	X4777X
E	022100
F#m	244222

Intro riff
	Bm
E] ----------------|-----------|------|
B] -10h12-15-12-10-|--10-7~~---|------|
G] ----------------|-----9-7---|--7---|
D] ----------------|--------9--|-7-9--|
A] ----------------|-----------|------|
E} ----------------|-----------|------|

No chords
I changed the world, I changed the world (ooh,ooh)
intro riff
I changed the world, I wanna change the world (ooh,ooh ooh)

Bm		 A	         A/Ab	    F#m
   This ain't the way I spend my mornings, baby
E  E	   E  E
   Come stai
Bm		    A		      A/Ab	 F#m
   You've been with him, now you come back, my lady
E  E		E  E
   What's he like

Bm	      A			      G
   I just sit,    and watch the ocean,    by myself
A
   Even doing my own cooking
Bm	         A
   You can laugh,   and you're forgiven
G				A
But,  I'm no longer frightened,     to be living

	  D  D/C#	 Bm	       A
Senza una donna, no more pain and no sorrow
	  D  D/C#	 G		    A
Senza una donna,    I'll make it through tomorrow
	  D  D/C#            Bm		     A
Senza una donna,   giving me torture and bliss
	  D  D/C#	    G		      A
Without a woman (ooh ooh), ah, better like this,

  Bm		  A		   A/Ab	    F#m
Yeah, There is no way that you can buy me, baby
E  E	        E  E
   Don't make fun
  Bm	          A	      A/Ab	F#m
Huh,  you got to dig a little deeper, lady
E	        E		  E  E
(In the heart) yeah, if you have one

Bm		   A
   Here's my heart,   feel the power
G			   A
   Look at me, look at me, huh, I'm a flower, huh
Bm		    A
   You can laugh and you're forgiven
G			        A
   But I'm no longer frightened to be living

	  D  D/C#	 Bm	       A
Senza una donna, no more pain and no sorrow
	  D  D/C#	 G		    A
Senza una donna, oh I'll make it through tomorrow
	  D  D/C#	     Bm		     A
Senza una donna,   giving me torture and bliss, bliss
G	    F#		    A
Ooh ooh-ooh ooh ooh-ooh-ooh ooh, huh


Solo


2x

E]---------------------7----------------------------------|
B]------------------7-9-7~~-------7----7b---------7-------|
G]----7----------7-9-------7-7h9p7-9~~---9-7-7h9p7-9/15\9-|
D]7h9-9~~~---7h9-----------------------------------------|
A]--------------------------------------------------------|
E}--------------------------------------------------------|

E]---------------------------------|
B]-7------------------------14-12~~|
G]-7h9p7--------------------------|
D] -----9-7h9p7---------9/12------|
A]--------------9-7-9~~------------|
E}------------------7~~------------|

E]---------------------------------|
B]--10h12h14-14b-14p12p10h12b-10\--|
G]--------------------------------|
D]--------------------------------|
A]---------------------------------|
E}---------------------------------|

E]-------------------21-22-19~~----|
B]-14~~---------14h17--------------|
G]--------14h16-------------------|
D]----14h16-----------------------|
A]---------------------------------|
E}---------------------------------|


Bm	       A
   I stay here,  and watch the ocean
  G				  A
   Don't know why, don't know why,  I keep on talking, I keep on
Bm		       A
talking, You may laugh,   you're forgiven
  G				  A
   But I'm no longer frightened (maybe) to be living

	  D  D/C#	 Bm	       A
Senza una donna, no more pain and no sorrow
	  D  D/C#	 G		    A
Senza una donna, oh I'll make it through tomorrow
	  D  D/C#	     Bm		     A
Senza una donna,   giving me torture and bliss
          G	F#        A
Without a woman,   vieni qui, come on in

          D  D/C#	   Bm	             A
Senza una donna,   I don't know what might follow
	   D  D/C#	     G		    A
(Senza una donna) ah, oh but maybe from tomorrow
	   D  D/C#		Bm	       A
(Senza una donna) ooh,giving me torture and bliss,bliss
G       F#m	D
Ooh ooh ooh ooh ooh ooh





Comments


Popular Paul Young tabs & chords
Love Of The Common People Chords
Oh Girl Chords
Wherever I Lay My Hat 1 Chords
Come Back And Stay Ukulele
Do They Know Its Christmas Time At All Ukulele
Every Time You Go Away Ukulele
Love Of The Common People Ukulele
Now I Know What Made Otis Blue Ukulele
Oh Girl Ukulele
Wherever I Lay My Hat Ukulele


Song lyrics



↑ Back to top | Tablatures and chords are parodies/interpretations of the original songs. You may use it for private study, scholarship, research or language learning purposes only
© 2014 AZChords.com Contact us | Privacy policy | DMCA | Add/correct tabs | Request tabs | Top 50 tabs