» » »

Every Time You Go Away Bass tabs (ver.1)

Artists:  A B C D E F G H I J K L M N O P Q R S T U V W X Y Z # 

Every Time You Go Away Bass tabs (ver.1)

Paul Young
Rating:
0/5 (0 votes)

Hard to play? Try these video lessons and learn fast.
                All 1s not 11s

This is the album version

Intro/Chorus
G|---------------------------------------------10---9---7-----------------|
D|-------------7h8p7-5-----------------------7----7---7---7-5h7p5---------|
A|------3/5-55------------3-33--------3/4/5--------------------------3-33-|
E|-1-11----------------33--------1-11-----------------------------33------|

Intro part 2/Per Verse (x2 for intro, once for Pre Verse)

                                          Intro only
G|-------------------------------3/5-------|------|
D|--------3-5-3----------------------------|------|
A|------3-------5-3-1---11--1111-----3333--|-3-33-|
E|-1-11------------------------------------|------|

Verse
G|---------------------------------------------------------------------------|
D|---------------------10-12--------------------------------10/12\10---------|
A|---------------------------10-8-10-8------------------------------10-8-10b-|
E|-1111-5555-6666-8888-------------------1111-5555-6666-8888-----------------|

Pre Chorus
G|----------------------------12-9--------------10----9----7---------|
D|--------12-15-14------------12-12----------------10---10---10------|
A|-----12----------12---10/12-----------------------------------10-8-|
E|-10--------------------------------6-66---8-8----------------------|

REPEAT

Bridge
G|-----------------3/5---------------------------------------3/5------|
D|-----------------------------------3-5-3----------------------------|
A|--------11--1111-----3333--------3--------5-3-1---11--1111-----3333-|
E|-1-11-1---------------------1-11------------------------------------|

Repeat Pre Chorus and Chorus

4.34
G|---------------------------------------------------10----------------------------|
D|-------------7----------------------------------------10----10-------------------|
A|------3/5--5---5--5-8-5---------3h5-33--------3/5--------10----10---------3h5-33-|
E|-1-11-------------------6--3-33----------1-11---------------------8--3-33--------|

Repeat Verse until fade out
            
Hard to play? Try these video lessons and learn fast. | Correct




comments powered by Disqus
↑ Back to top | Tablatures and chords are parodies/interpretations of the original songs. You may use it for private study, scholarship, research or language learning purposes only