>
 >
Kodachrome

Kodachrome Bass Tabs

Paul Simon - Kodachrome chords, tabs, tablatures, lyrics

Guitar lessons | Add/correct | Request | Top 50 tabs Artists:  A B C D E F G H I J K L M N O P Q R S T U V W X Y Z 0-9

Kodachrome Bass Tabs – Paul Simon

CD, Sheet music, Poster

Do you like Kodachrome? Share with your friends now
Bass TabsChordsChords v2Chords v3Chords v4Chords v5Chords v6Chords v7TabsTabs v2Tabs v3Ukulele
A classic by Paul Simon.


Tuning: EADG

Time signature: 4/4 (except where noted)

r = rest (listen for duration)
/ = slide (low to high)
\ = slide (high to low)


*My tabs are meant to be read in conjunction with listening to the song.
In other words, there are no specific notations to account for note/rest duration. 
However, you will find that I’ve made an attempt to strategically space the notes and 
rests within their respective measures in order to represent the appropriate durations.



 INTRO


G|--------------------------------|--------------------------------|
D|--------------------------------|--------------------------------|
A|7-------------------------------|7-----------------------7\------|
E|--------------------------------|--------------------------------|


                 
|--------------------------------|--------------------------------|
|----------------2---2-----------|----------------2---------------|
|0---0---3---3-----------3---3---|0---0---3---3-------3---2---0---|
|--------------------------------|--------------------------------|



|--------------------------------|--------------------------------|
|--------------------------------|--------------------------------|
|--------------------------------|----------------------------5---|
|2-------2-------2-------2-------|7-------7-------7-------7-------|


                                                 “ When  I  think
|--------------------------------|--------------------------------|
|--------------------------------|--------------------------------|
|7-------7-------7-------7-------|9-------9-----------------------|
|--------------------------------|----------------7-------7-------|



 VERSE


 back     on     all     the     crap     I     learned     in 
|--------------------------------|--------------------------------|
|--------------------------------|--------------------------------|
|7---------------7---------------|7-------7-------7-------7\------|
|--------------------------------|--------------------------------|


 high school... ”
|--------------------------------|--------------------------------|
|----------------2---2-----------|----------------2---------------|
|0---0---3---3-----------3---3---|0---0---3---3-------3---2---0---|
|--------------------------------|--------------------------------|


     “ ...it’s     a     wonder     I     can     think  at
|--------------------------------|--------------------------------|
|--------------------------------|--------------------------------|
|--------------------------------|----------------------------7---|
|2-------2-------2-------2-------|7-------7-------7---------------|


 all. ”
|--------------------------------|--------------------------------|
|7---------------7---------------|--------------------------------|
|--------------------------------|9-------9-----------------------|
|--------------------------------|----------------7-------7-------|



|--------------------------------|--------------------------------|
|--------------------------------|--------------------------------|
|7---------------7---------------|7-----------------------7\------|
|--------------------------------|--------------------------------|


 
|--------------------------------|--------------------------------|
|----------------2---2-----------|----------------2---------------|
|0---0---3---3-----------3---3---|0---0---3---3-------3---2---0---|
|--------------------------------|--------------------------------|


    
|--------------------------------|--------------------------------|
|--------------------------------|--------------------------------|
|--------------------------------|----------------------------5---|
|2---------------2---------------|7-------7-------7-------7-------|


                                 CHORUS


                         “ Kodachrome ____________________________
|--------------------------------|--------------------------------|
|--------------------------------|--------------------------------|
|7-------7-------7-------7\------|----------------4---------------|
|--------------------------------|5-------------------------------|


 _______ ”
|--------------------------------|--------------------------------|
|--------------------------------|--------------------------------|
|--------------------------------|--------------------------------|
|2-------2-------2-------/-------|7-------7-------7-------7---9---|



|--------------------------------|--------------------------------|
|--------------------------------|--------------------------------|
|7-------7-------9---7---6---5---|--------------------------------|
|--------------------------------|5-------5-------5-------5---7---|



|--------------------------------|--------------------------------|
|--------------------------------|----------------------------0---|
|5-------5-------7---5---4---3---|2-------2-------2-------2-------|
|--------------------------------|--------------------------------|


                                  7/8
|--------------------------------|--------------------------------|
|2-------2-------2-------2-------|--------------------------------|
|--------------------------------|------------4-------------------|
|--------------------------------|5-----------------------2-------|

                                  4/4
                “ I      got      a     Ni____________________kon                        
|--------------------------------|--------------------------------|
|--------------------------------|--------------------------------|
|--------------------------------|--------------------------------|
|----------------2---3---4---5---|7-------7-------7-------7---9---|


 camera... ”
|--------------------------------|--------------------------------|
|--------------------------------|--------------------------------|
|7-------7-------9---7---6---5---|--------------------------------|
|--------------------------------|5-------5-------5-------5---7---|



|--------------------------------|--------------------------------|
|--------------------------------|----------------------------0---|
|5-------5-------7---5---4---3---|2-------2-------2-------2-------|
|--------------------------------|--------------------------------|



|--------------------------------|--------------------------------|
|2-------2-------2-------2-------|--------------------------------|
|--------------------------------|--------4-7-------------4-7-----|
|--------------------------------|5---------------5---------------|



|--------------------------------|--------------------------------|
|--------------------------------|--------------------------------|
|4---------------4---------------|--------2-4-------------2-4-----|
|--------4---------------4---3---|2---------------2---------------|


BRIDGE


|--------------------------------|
|--------------------------------|
|2-r-----2-----------------------|
|--------------------------------|



VERSE


CHORUS (to end)


              (PLEASE RATE THIS TAB / LEAVE COMMENT)                   





Comments


Popular Paul Simon tabs & chords
Loves Me Like A Rock 2 Bass Tabs
Kathy's Song Chords
Loves Me Like A Rock Chords
Me And Julio Chords
Something So Right Chords
Still Crazy After All These Years Chords
Mother And Child 1 Tabs
Papa Hobo Tabs
50 Ways To Leave Your Lover Ukulele
Boxer Ukulele


Song lyrics



↑ Back to top | Tablatures and chords are parodies/interpretations of the original songs. You may use it for private study, scholarship, research or language learning purposes only
© 2014 AZChords.com Contact us | Privacy policy | DMCA | Add/correct tabs | Request tabs | Top 50 tabs