» » »

Paul Simon, Koda Chrome Tabs (ver.1)

Artists:  A B C D E F G H I J K L M N O P Q R S T U V W X Y Z # 

Koda Chrome Tabs (ver.1)

Paul Simon Tabs
 Rating:
3.5/5 (8 votes)
Koda Chrome lessons Tabs too difficult? Try these video lessons and learn fast
1
                                               "KODACHROME"

For this song you will need a capo on the 2nd fret.  The entire song is played in 4/4 Time.

Intro/Verse

     D                       G
e|---2-2---2-2---2-2---------------------------------------------------------|
B|---3-3---3-3---3-3---3---0---0---0---0---0---0---0---0---0-----------------|
G|---2-2---2-2---2-2-------0---0---0---0---0---0---0---0---0-----------------|
D|-0-----0-----0-----0---------------0---------------0-----------------------|
A|-----------------------2-------1/2-----1/2-----1/2-------------------------|
E|---------------------------3---------------3---------3-2-1-----------------|
   Em              A7              D               Em      A7
e|---0---0---0---0---0---0-------0---2---2---2---2---0---0---0---0-----------|
B|---0---0---0---0---2---2-------2---3---3---3---3---0---0---2---2-----------|
G|---0---0---0---0---0---0-------0---2---2---2---2---0---0---0---0-----------|
D|---------------------------------0---0---0---0-----------------------------|
A|-----------------0---0---0---0---------------------------0---0-------------|
E|-0---0---0---0-----------------------------------0---0---------------------|

Chorus


G     B7     Em     Am     D     G     C     A7


D     G    B7   Em       G     Bm     Em     A7


Chords Used

G    210003
B7   x21304
Em   023000
Am   x02310
D    xx0132
C    x32010
A7   x02030
Bm   x13421






John Lennon is the man.
            
Submit corrections

comments powered by Disqus
↑ Back to top | Paul Simon Tabs for Koda Chrome. Lyrics for acoustic guitar and electric guitar. 1 Tablatures and chords are parodies/interpretations of the original songs. You may use it for private study, scholarship, research or language learning purposes only