» » »

Rain Forest Bass tabs (ver.2)

Artists:  A B C D E F G H I J K L M N O P Q R S T U V W X Y Z # 

Rain Forest Bass tabs (ver.2)

Paul Hardcastle
Rating:
0/5 (0 votes)

Hard to play? Try these video lessons and learn fast.
                

Classic Hardcastle!

Intro/Main Bass Line

G|-----------------------------------------------------|
D|-----------------------------------------------------|
A|-----------------9/11-7--------------------9/11-7----|
E|-9--9----7-9--9------------9--9----7-9--9------------|
B|-----------------------------------------------------|

G|-----------------------------------------------------|
D|-----------------------------------------------------|
A|-----------------9/11-7--------------------9/11-7----|
E|-9--9----7-9--9------------9--9----7-9--9------------|
B|-----------------------------------------------------|

G|-----------------------------------------------------|
D|-----------------------------------------------------|
A|-----------------9/11-7--------------------9/11-7----|
E|-9--9----7-9--9------------9--9----7-9--9------------|
B|-----------------------------------------------------|

G|-----------------------------------------------------|
D|-----------------------------------------------------|
A|-----------------9/11-7--------------------9/11-7----|
E|-9--9----7-9--9------------9--9----7-9--9------------|
B|-----------------------------------------------------|

After you play that a bunch then he turns up the pace into this...

G|--------------------------------------------------------|
D|--------------------------------------------------------|
A|-------------------9/11-7-9--------------------9/11-7-9-|
E|-9--9----7-7-9--9------------9--9----7-7-9--9-----------|
B|--------------------------------------------------------|

G|--------------------------------------------------------|
D|--------------------------------------------------------|
A|-------------------9/11-7-9--------------------9/11-7-9-|
E|-9--9----7-7-9--9------------9--9----7-7-9--9-----------|
B|--------------------------------------------------------|

G|--------------------------------------------------------|
D|--------------------------------------------------------|
A|-------------------9/11-7-9--------------------9/11-7-9-|
E|-9--9----7-7-9--9------------9--9----7-7-9--9-----------|
B|--------------------------------------------------------|

G|--------------------------------------------------------|
D|--------------------------------------------------------|
A|-------------------9/11-7-9--------------------9/11-7-9-|
E|-9--9----7-7-9--9------------9--9----7-7-9--9-----------|
B|--------------------------------------------------------|
            
Hard to play? Try these video lessons and learn fast. | Correct




comments powered by Disqus
↑ Back to top | Tablatures and chords are parodies/interpretations of the original songs. You may use it for private study, scholarship, research or language learning purposes only