» » »

Patti Smith, Sometimes Love Just Aint Enough Tabs (ver.1)

Artists:  A B C D E F G H I J K L M N O P Q R S T U V W X Y Z # 

Sometimes Love Just Aint Enough Tabs (ver.1)

Patti Smith Tabs
 Rating:
4/5 (4 votes)
Sometimes Love Just Aint Enough lessons Tabs too difficult? Try these video lessons and learn fast
1
                +r_Zee+
SARDINAS REPUBLIC


*****************************************************************************

Patti Smith

Capo 1st Fret

Intro

Guitar 1

  A       F#n       G         A

--0-----|-2------|-3------|--0-----|
--2-----|-2------|-3------|--2-----|
--2-----|-2------|-3------|--2-----|
--2-----|-4------|-5------|--2-----|
--0-----|-4------|-5------|--0-----|
--x-----|-2------|-3------|--x-----|





Guitar 2


-------------------------------------|
-2--2---2---4----6-------------------|
-------------------------------------|
-------------------------------------| > 2x
-------------------------------------|
-------------------------------------|





-------------|
-6---2-------|
-------------|
---------4/6-|
-------------|
-------------|





Intro/Verse: A , F#m , G , A


Pre-Chorus: D A>2x D C#m E a9 E


Chorus: D A E A>2x D A E F#m D E 
            
Submit corrections

comments powered by Disqus
↑ Back to top | Patti Smith Tabs for Sometimes Love Just Aint Enough. Lyrics for acoustic guitar and electric guitar. 1 Tablatures and chords are parodies/interpretations of the original songs. You may use it for private study, scholarship, research or language learning purposes only