» » »

Patti Smith, Because The Night Bass tabs (ver.1)

Artists:  A B C D E F G H I J K L M N O P Q R S T U V W X Y Z # 

Because The Night Bass tabs (ver.1)

Patti Smith Tabs
 Rating:
4/5 (4 votes)
Because The Night lessons Tabs too difficult? Try these video lessons and learn fast
1
                -------------------------------------------------------------------------------
			    BECAUSE THE NIGHT – PATTI SMITH
-------------------------------------------------------------------------------


Tuning: EADG

intro  (if you want or only piano)

G|-1\4-----------------|----------------------|-------------------|
D|-----5-----5\7-7-7\9-|-7-h9-9-----------7-9-|--79-----------7-9-|
A|---------------------|--------10------------|-9---10------------|
E|---------------------|----------------------|-------------------|

G|------------------|-------------------|------------------|
D|--9-----------7-9-|-79------------7-9-|-79-----------7-9-|
A|-9--10------------|-----10------------|----10------------|
E|------------------|-------------------|------------------|

(00:26) Come on now...
G|--------------------------------------------------------|
D|--------------------------------------------------------|
A|-----5-5---2-------2---5-------2---3-333-2-222----------|
E|-3-5-----5---3-333---5---3-333---5-------------22222222-|

(00:46) Because the night... (x4)
G|---------------|
D|---------------|
A|-22----------2-|
E|----33-33-5-5--|

(01:02) Have a doubt...
G|----------|
D|----------|
A|-2------2-|
E|---3-35---|

(01:18) Come on now...
G|----------------------MrSoft85--------------------------|
D|--------------------------------------------------------|
A|-----5-5---2-------2---5-------2---3-333-2-222----------|
E|-3-5-----5---3-333---5---3-333---5-------------22222222-|

(01:38) Because the night... (x4)
G|---------------|
D|---------------|
A|-22----------2-|
E|----33-33-5-5--|

(01:53) Solo
G|--------------------------------------------------------------|
D|--------------------------------------------------------------|
A|-----5-5---2-------2---5-------2-2---333333333333333333333333-|
E|-3-5-----5---3-333---5---3-333-----5--------------------------|

(02:08) With love we sleep...
G|-----------------------------------------------------|
D|-----------------------------------------------------|
A|-5-5---5-5---2-2---5-5---2-2---5-5------5-5----------|
E|----5-5---5-5---5-5---5-5---5-5---5-53-3---3-33333333|

(02:24) So touch me now...
G|-------------------------------------|
D|-------------------55555554542452----|
A|-22222222-55555555---------------542-|
E|-------------------------------------|

(02:32) Because the night...   (to the end)
G|---------------|
D|---------------|
A|-22----------2-|
E|----33-33-5-5--|


 100% Correct 
 Enjoy

| /  slide up
| \  slide down
| h  hammer-on
| p  pull-off
| ~  vibrato
| +  harmonic
| x  Mute note
===============================================================================
            
Submit corrections

comments powered by Disqus
↑ Back to top | Patti Smith Bass for Because The Night. Lyrics for acoustic guitar and electric guitar. 1 Tablatures and chords are parodies/interpretations of the original songs. You may use it for private study, scholarship, research or language learning purposes only