>
 >
One Less Heart To Break 2

One Less Heart To Break 2 Guitar Tabs

Patent Pending - One Less Heart To Break 2 chords, tabs, tablatures, lyrics

Guitar lessons | Add/correct | Request | Top 50 tabs Artists:  A B C D E F G H I J K L M N O P Q R S T U V W X Y Z 0-9

One Less Heart To Break 2 Guitar Tabs – Patent Pending

CD, Sheet music, Poster

Do you like One Less Heart To Break 2? Share with your friends now
Bass TabsTabsTabs v2Tabs v3
One Less Heart To Break by Patent Pending
By ryanprice677
Guitar 1 and 2  Standard Tuning: E-A-D-G-B-e
 . = Palm Mute
W = Whole note/let ring
Q = Quarter note
E = Eighth note

Intro/verse 1(Guitar 1)
|-----------------------------------|
|-----------------------------------|
|--4-4-4-4-4-4-4-4-4-4-4-4-4-4-4-4--| x6
|-2-2-2-2-2-2-2-2-4-4-4-4-6-6-4-4---|
|-----------------------------------|
|-----------------------------------|
  EEEEEEEEEEEEEEEEEEEEEEEEEEEEEEEE

Pre-chorus(Guitar 1 and 2)
|------------------------------------------------------------------------|
|------------------------------------------------------------------------|
|4-4444444444444444------------------------------------------------------|
|4-44444444444444442-22222222222222224-44444444444444442-2222222222222222|
|2-22222222222222222-22222222222222224-44444444444444442-2222222222222222|
|------------------0-00000000000000002-22222222222222220-0000000000000000|
   ...............   ................  ................  ................
 Q EEEEEEEEEEEEEEEEQ EEEEEEEEEEEEEEEEQ EEEEEEEEEEEEEEEEQ EEEEEEEEEEEEEEEE

Chorus
|--------------------------------|
|--------------------------------|
|44444444------------------------|
|44444444222222226666666622222222| x2
|22222222222222226666666622222222|
|--------000000004444444400000000|
 QQQQQQQQQQQQQQQQQQQQQQQQQQQQQQQQ

Outro chorus
|--------------------------------|
|--------------------------------|
|44444444666666669~--------------|
|44444444666666669~--------------|
|22222222444444447~--------------|
|--------------------------------|
 EEEEEEEEEEEEEEEEW

Verse 2
-------|
-------|
----4--| Palm muted and weird pattern (Listen to the song carefully, not difficult)
2-4-4-6|
2-4-2-6|
0-2---4|

Pre chorus
|------------------------------------------------------------------------|
|------------------------------------------------------------------------|
|4-4444444444444444------------------------------------------------------|
|4-44444444444444442-22222222222222224-44444444444444442-2222222222222222|
|2-22222222222222222-22222222222222224-44444444444444442-2222222222222222|
|------------------0-00000000000000002-22222222222222220-0000000000000000|
   ...............   ................  ................  ................
 Q EEEEEEEEEEEEEEEEQ EEEEEEEEEEEEEEEEQ EEEEEEEEEEEEEEEEQ EEEEEEEEEEEEEEEE

Chorus
|--------------------------------|
|--------------------------------|
|44444444------------------------|
|44444444222222226666666622222222| x2
|22222222222222226666666622222222|
|--------000000004444444400000000|
 QQQQQQQQQQQQQQQQQQQQQQQQQQQQQQQQ





Outro chorus
|--------------------------------------|
|--------------------------------------|
|444444446666666699999999--------------|
|444444446666666699999999--------------|
|222222224444444477777777--------------|
|--------------------------------------|
 EEEEEEEEEEEEEEEEQQQQQQQQ

Bridge
|------------------|
|------------------|
|--------44444444--|
|2222666644444444--|x2
|2222666622222222--|
|00004444----------|
 QQQQQQQQQQQQQQQQ

|-------------------|
|-------------------|
|----------------4--|
|22222222444444444--|
|22222222444444442--|
|0000000066666666---|
 EEEEEEEEEEEEEEEEW

Chorus
|--------------|
|--------------|
|4-------------|
|4--2-6-2--22|
|2--2-6-0--22|
|---0--4-0--00|
             ..
 W  W  W  W  EE
Chorus
|------------------------------------|
|------------------------------------|
|44444444----------------------------|
|444444442222222266666-66666-22222222|
|222222222222222266666-66666-22222222|
|--------0000000044444-44444-00000000|
 QQQQQQQQQQQQQQQQEEEEE EEEEE QQQQQQQQ

Outro chorus
|--------------------------------|
|--------------------------------|
|44444444666666669~--------------|
|44444444666666669~--------------|
|22222222444444447~--------------|
|--------------------------------|
 EEEEEEEEEEEEEEEEW
END OF SONG! =)





Comments


Popular Patent Pending tabs & chords
Decemberween Bass Tabs
Decemberween 1 Bass Tabs
Douchebag Bass Tabs
Brighter Chords
L-town Shakedown Chords
Levittown Is For Lovers Chords
Safety Of Sleeping In Chords
Demo For Dana Intro Tabs
It's All On Me Tabs
One Less Heart To Break 1 Tabs


Song lyrics



↑ Back to top | Tablatures and chords are parodies/interpretations of the original songs. You may use it for private study, scholarship, research or language learning purposes only
© 2014 AZChords.com Contact us | Privacy policy | DMCA | Add/correct tabs | Request tabs | Top 50 tabs