» » »

Passafire, Submersible Bass tabs (ver.1)

Artists:  A B C D E F G H I J K L M N O P Q R S T U V W X Y Z # 

Submersible Bass tabs (ver.1)

Passafire Tabs
 Rating:
4.2/5 (5 votes)
Submersible lessons Tabs too difficult? Try these video lessons and learn fast
                Band: Passafire

Bass tab


Intro

No bass...


Verses

 S S S S  S  P S S P S P S S S S S P S S P S P
|----------------------------------6-----9---8--|
|------------2-----6---2------------------------|
|4-4-4-4-------------------------4---6-7---6----|
|--------(0)---2-4---0---4-4-4-4----------------|


Pre-Chorus

|--------------|
|---2~---------|
|4~-------4~---|
|------4~------|

Chorus

|/9\------------------------------|
|--------7-7---7-7---------9-9-9--|
|----7-7-----------9---9-9--------|
|---------------------------------|

|------8-6-6-/13\-----6-9----|
|7-6-9------------6-7-----9~-|
|----------------------------|
|----------------------------|

Guitar Solo

|6-6-6-6-6-9-9-9-9-9-9-------------6-8-9-8--|
|----------------------6-6-6-6-6-6----------|
|-------------------------------------------|
|-------------------------------------------|

Breakdown (After-solo)

|---------------------------|
|---------------------------|
|2h4-2h4-2h4-2h4p2-4p2------|
|----------------------4p0--|


Bass Solo/Keyboard Solo (Breakdown #2)

S S S S  S  P S S P S P S S S S S P S S P S P
|----------------------------------6-----9---8--|
|------------2-----6---2------------------------|
|4-4-4-4-------------------------4---6-7---6----|
|--------(0)---2-4---0---4-4-4-4----------------|


Outro

|-------------------------------------------------|
|-------------------------13---------9------------|
|--------------9h11----11----11---11---11-10b(11)-|
|9-9-9-9-11-12------12----------9-----------------|


Tablature Legend

/ or \ = slide
b = bend
S = Slap
P= Pop
h = hammer-on
p = pull-off
            
Submit corrections

comments powered by Disqus
↑ Back to top | Passafire Bass for Submersible. Lyrics for acoustic guitar and electric guitar. Tablatures and chords are parodies/interpretations of the original songs. You may use it for private study, scholarship, research or language learning purposes only