» » »

Passafire, Submersible Tabs (ver.1)

Artists:  A B C D E F G H I J K L M N O P Q R S T U V W X Y Z # 

Submersible Tabs (ver.1)

Passafire Tabs
Rating:
4/5 (3 votes)
Submersible lessons Tabs too difficult? Try these video lessons and learn fast
                Band: Passafire

Intro (Reverb Effect)

|------0-----0---2---2-4-----------------------------|
|--2-------------------5---0---4-----2---5p4-5p4-2---|
|----------------------------1-----------------------|
|----------2---2---2---------------------------------|
|4---4-----------------------------4---4-------------|
|----------------------------------------------------|

^2x

Verse (Don’t confuse the synthesized keyboard for the guitar. The guitar is in groups of 
on the off-beats)

|--------------------------------------|
|9-9-9-9-9-9-9-9-----------------------|
|9-9-9-9-9-9-9-9----------9--9--9--9---|
|----------------9-9-9-9-11-11-11-11---|
|----------------9-9-9-9---------------|
|--------------------------------------|

Chorus

|4-7-4-4-|
|4-9-4-4-|
|6-9-5-6-|
|6-9-6-6-|
|4-7-6-4-|
|4-7-4-4-|

Bridge (When you drown…)

|-----------------------------|
|9-9---10-10---7-7---12-10-10-|
|9-9----9--9---6-6---11--9--9-|
|-----------------------------|
|-----------------------------|
|-----------------------------|


|----------------------|
|9-9---9-9---10-10—--7-|
|9-9---9-9----9--9---6-|
|----------------------|
|----------------------|
|----------------------|

Solo

|7h9-7h9-7h9-7h9-7h9-7h9-7h9-7h9-7h9-7h9-7h9-|
|--------------------------------------------|
|--------------------------------------------|
|--------------------------------------------|
|--------------------------------------------|
|--------------------------------------------|

|--7-9/11p9-7-9-9---7-9/11p9-7-9-|
|9----------------9--------------|
|--------------------------------|
|--------------------------------|
|--------------------------------|
|--------------------------------|

|9---7-7---7-----------------|
|--9-----9---10-9-9-10-9-----|
|------------------------9-6-|
|----------------------------|
|----------------------------|
|----------------------------|

After-Solo Riff

|--------------------------|
|--------------------------|
|--------------------------|
|--------------------------|
|2h4-2h4-2h4-2h4p2-4p2-----|
|----------------------4p0-|

|4-4-9--4-4-|
|5-4-9--4-5-|
|6-6-11-6-6-|
|6-6-11-6-6-|
|4-4-9--4-4-|
|4-4-9--4-4-|

|----------------------------|
|----------------------------|
|/666666666666666666666666---|
|----------------------------|
|----------------------------|
|----------------------------|

Bass Solo

|4-|
|5-|
|6-|
|6-| (2x)
|4-|
|4-|

Keyboard Solo

|4-|
|5-|
|6-|
|6-| (2x)
|4-|
|4-|

Outro

|4-4-4-4-4-4-4-4-|
|5-5-5-5-4-4-5-5-|
|6-6-4-4-4-4-6-6-|
|6-6-6-6-6-6-6-6-| (Repeat as necessary)
|4-4-7-7-6-6-4-4-|
|4-4-4-4-4-4-4-4-|
            

comments powered by Disqus
↑ Back to top | Passafire Tabs for Submersible. Lyrics for acoustic guitar and electric guitar. Tablatures and chords are parodies/interpretations of the original songs. You may use it for private study, scholarship, research or language learning purposes only