» » »

Passafire, Feel It Chords (ver.1)

Artists:  A B C D E F G H I J K L M N O P Q R S T U V W X Y Z # 

Feel It Chords (ver.1)

Passafire Tabs
Rating:
1/5 (1 vote)
Feel It lessons Tabs too difficult? Try these video lessons and learn fast
                Band: Passafire

[Intro x2:]
Fm                       Eb
                                     E E q  q  Q
|----------|----1------|----------|---------------|
|----------|-------1---|----------|---6-----------|
|----------|---------1-|----------|-----8--6--5---|
|----------|-----------|----------|---------------|
|----------|-----------|----------|---------------|
|----------|-----------|----------|---------------|

Bm                          Fm
            E E q  q  Q
|----------|--------------|----------|----------|
|----------|--------------|----------|----------|
|----------|---8-6--5-----|----------|----------|
|----------|-----------6--|----------|----------|
|----------|--------------|----------|----------|
|----------|--------------|----------|----------|


[Verse:]

Fm                                   Eb
I try. I've tried but still no luck, but I know one thing is right
Bm                                        Fm
My life, oh my sweet life is an open book, is an open book
So I ask myself...

When it comes to the end, does anyone want to read it again
Or throw it back upon the shelf? 
This is the story of yourself


[Chorus:]
Ab                  Eb
So if you feel it, you've got to really feel it
Bm                  Fm
You've got to hold on, hold on


[Verse:]
Fm                                            Eb
I write this today just to tell you that it's okay
To pray for the people that you love
Whether or not you think there is a god above
     Bm
It's inside us, even if you're a fighter
                                  Fm
Got to recognize the eternal fire within
Within your soul

Fm
When you think that you have everything that you need
                               Eb
Someone takes it away and your left on your knees
You get by begging change, the police know your name
but it's the same thing again and again
Bm
When you reach to the sky, come up with dirt in your hand
When you see it with you eye you can't believe it man
Fm
They've got a solution for every problem
And you just want to rob them again



[Chorus:]
Ab                  Eb
So if you feel it, you've got to really feel it
Bm                  Fm
You've got to hold on, hold on

Oh if you feel it, you've got to really feel it
You've got to hold on, hold on


[Instrumental dub x2:]
Fm                       Eb
                                     E E q  q  Q
|----------|----1------|----------|---------------|
|----------|-------1---|----------|---6-----------|
|----------|---------1-|----------|-----8--6--5---|
|----------|-----------|----------|---------------|
|----------|-----------|----------|---------------|
|----------|-----------|----------|---------------|

Bm                          Fm
            E E q  q  Q
|----------|--------------|----------|----------|
|----------|--------------|----------|----------|
|----------|---8-6--5-----|----------|----------|
|----------|-----------6--|----------|----------|
|----------|--------------|----------|----------|
|----------|--------------|----------|----------|



[Chorus:]
Ab                  Eb
Oh if you feel it, you've got to really feel it
Bm                  Fm
You've got to hold on, hold on
            

comments powered by Disqus
↑ Back to top | Passafire Chords for Feel It. Lyrics for acoustic guitar and electric guitar. Tablatures and chords are parodies/interpretations of the original songs. You may use it for private study, scholarship, research or language learning purposes only