» » »

Feel It Bass tabs (ver.1)

Artists:  A B C D E F G H I J K L M N O P Q R S T U V W X Y Z # 

Feel It Bass tabs (ver.1)

Passafire
Rating:
0/5 (0 votes)

Hard to play? Try these video lessons and learn fast.
                -------------------------------------------------------------------------------
			     SONG NAME - Band Name
-------------------------------------------------------------------------------


(intro-played quitley)
G|--------------------------------|
D|--------------------------------|
A|-2~~------2~~--------3-2-3------|
E|-----3~~-------3~~---------0-2--|
B|--------------------------------|

G|------------------------------------------------------------------|
D|------------------------------------------------------------------|
A|------------------------------------------------------------------|
E|-------66------6-------66-------6-----44------4-------44-----4----|
B|-----4---44--4---4---4----44--4---4--2--22--2---2--22---22--2--2--|

| /  slide up
| \  slide down
| h  hammer-on
| p  pull-off
| ~  vibrato
| +  harmonic
| x  Mute note
===============================================================================
            
Hard to play? Try these video lessons and learn fast. | Correct




comments powered by Disqus
↑ Back to top | Tablatures and chords are parodies/interpretations of the original songs. You may use it for private study, scholarship, research or language learning purposes only