» » »

Gate Tabs (ver.1)

Artists:  A B C D E F G H I J K L M N O P Q R S T U V W X Y Z # 

Gate Tabs (ver.1)

Pascale Picard
Rating:
0/5 (0 votes)

Tabs too difficult? Try these video lessons and learn fast.
                "(2)
bridge pickup, very few trebles

e|------------------------------------------------------------------------|
B|------------------------------------------------------------------------|
G|---------------------------------------9~--------------9-10-9-10/12~----|
D|------------------------------------------------6/9~---9-11-9-11/13~----|
A|---7-9-7-9/11~---7-9/11~----7-9-7-9/11------7-9-------------------------|
E|------------------------------------------------------------------------|


e|------------------------------------------------------------------------|
B|------------------------------------------------------------------------|
G|-------------------------------------9-10-9-10-9/10~---9-10-9-10/12~----|
D|---11/14\11/14---9-/11\9-/11\9-/11---9-11-9-11-9/11~---9-11-9-11/13~----|
A|---13/16\13/16---11/13\11/13\11/13--------------------------------------|
E|------------------------------------------------------------------------|

e|------------------------------------------------------------------------|
B|------------------------------------------------------------------------|
G|----11\9-/11\9-/11---13h16p13-------13---------------9-/11\9-/11\9-/11~-|
D|----13\11/13\11/13---x--------16b18----18r16-14------11/13\11/13\11/13~-|
A|---------------------x--------------------------16----------------------|
E|------------------------------------------------------------------------|
"            
Tabs too difficult? Try these video lessons and learn fast.


comments powered by Disqus
↑ Back to top | Tablatures and chords are parodies/interpretations of the original songs. You may use it for private study, scholarship, research or language learning purposes only