>
 >
Gate 22

Gate 22 Bass Tabs

Pascale Picard - Gate 22 chords, tabs, tablatures, lyrics

Guitar lessons | Add/correct | Request | Top 50 tabs Artists:  A B C D E F G H I J K L M N O P Q R S T U V W X Y Z 0-9

Gate 22 Bass Tabs – Pascale Picard

CD, Sheet music, Poster

Do you like Gate 22? Share with your friends now
Bass TabsChordsChords v2Chords v3TabsUkulele
Pascale Picard - Gate 22 bass tab
Benoit Grenier

Listen carefully for the beat


VERSE 1 (00:27)
|--------------|--------------|--------------|-----------------|
|--------------|--------------|--------------|-----------------| x1
|---4----2--4--|---------2--4-|---------2--4-|--0---4-2-----2-3|
|-----4--------|---4--4-------|---2--4-------|----0-------4----|

VERSE 1 PART 2 (00:35)
|---------------|---------------|---------------|-----------------|
|---------------|---------------|---------------|-----------------| x2
|4---2-4-2------|----2-4-2------|----2-4-2------|--0---4-2-----2-3|
|--4-------4-2-4|4-4-------4-2-4|2-4-------4-2-4|----0-------4----|



PRE-CHORUS 1 Part 1 (00:52)
|---------------|----------|-------------|-2-2-2-4--4-4---|
|---"Here I AM"-|------6/9-|----4/6-4-4-4|----------------| x1
|4--------------|--4-6-----|--2----------|----------------|
|---------------|4---------|2------------|----------------|

PRE-CHORUS 1 PART 2 (01:00)
|---------------|---------------|---------------|-2-2-2------2/4-4|
|---------------|6-6-6-6-6-6-6-6|4-4-4-4-4-4-4-4|-----------------| x1
|4-4-4-4-4-4-4-4|---------------|---------------|--------2--------|
|---------------|---------------|---------------|-----------------|       


CHORUS 1 Part 1 (01:08)
|---------------|---------------|---------------|-----------------|
|2-2-2-4/6--4\-2|------4/6-\-4-2|---------------|-4-4-4-----------| x1
|---------------|2-2-2----------|0-0-0-2-2-2-4-4|-------2---2-2---|
|---------------|---------------|---------------|-----------------|  
CHORUS 1 Part 2  (01:16)  
|---------------|---------------|---------------|------------2^4---|
|2-2-2-4/6--4\-2|------4/6-\-4-2|---------------|------------------| x1
|---------------|2-2-2----------|0-0-0-0-0-0-0-0|---4--------------|
|---------------|---------------|---------------|--------2---------| 


NO BASS BETWEEN 01:26 to 1:31   


VERSE 2 PART 1 (01:31)
|---------------|---------------|---------------|-----------------|
|---------------|---------------|---------------|-----------------| x1
|----------11\--|----2-4-2------|----2-4-2------|--0---4-2-----2-3|
|---------------|4-4-------4-2-4|2-4-------4-2-4|----0-------4----|

VERSE 2 PART 2 (01:38)
|---------------|---------------|---------------|-----------------|
|---------------|---------------|---------------|-----------------| x3
|4---2-4-2------|----2-4-2------|----2-4-2------|--0---4-2-----2-3|
|--4-------4-2-4|4-4-------4-2-4|2-4-------4-2-4|----0-------4----|



PRE-CHORUS 2 Part 1 (02:02)
|---------------|----------|-------------|-2-2-2-4--4-4---|
|---"Here I AM"-|------6/9-|----4/6-4-4-4|----------------| x1
|4--\-----------|--4-6-----|--2----------|----------------|
|---------------|4---------|2------------|----------------|

PRE-CHORUS 2 PART 2 (02:10)
|---------------|---------------|---------------|-2-2-2------2/4-4|
|---------------|6-6-6-6-6-6-6-6|4-4-4-4-4-4-4-4|-----------------| x1
|4-4-4-4-4-4-4-4|---------------|---------------|--------2--------|
|---------------|---------------|---------------|-----------------|    



CHORUS 2 Part 1 (02:18)
|---------------|---------------|---------------|------------------|
|2-2-2-4/6--4\-2|------4/6-\-4-2|---------------|-4-4-4------------| x1
|---------------|2-2-2----------|0-0-0-2-2-2-4-4|-------2---2-2----|
|---------------|---------------|---------------|------------------|  
CHORUS 2 Part 2  (02:26)  
|---------------|---------------|---------------|------------------|
|2-2-2-4/6--4\-2|------4/6-\-4-2|---------------|--------9---------| x1
|---------------|2-2-2----------|0-0-0-0-0-0-0-0|-4--/-9-----------|
|---------------|---------------|---------------|------------------| 



BRIDGE Part 1 (02:37)
|---------------|-8-------------|-9--8--\4--6---|-----------------|
|-9-------------|---------------|---------------|-9\--------------| x1
|---------------|---------------|---------------|-----------------|
|---------------|---------------|---------------|-----------------| 

BRIDGE Part 2 (02:45)
|---------------|---------------|---------------|-----4--|-----4---|
|---------------|6-6-6-6-6-6-6-6|4-4-4-4-4-4-4-4|-7------|5/7------| x1
|4-4-4-4-4-4-4-4|---------------|---------------|--------|---------|
|---------------|---------------|---------------|--------|---------| 



PRE-CHORUS 3 Part 1 (02:57)
|---------------|---------------|---------------|
|---"Here I AM"-|6-6-6-6-6-6-6-6|---------------| x1
|---------------|---------------|2-2-2-2-2-2-2-2|
|---------------|---------------|---------------|



PRE-CHORUS 3 PART 2 (03:01)
|---------------|---------------|---------------|-----------------|
|2-2-2-2-2-2-2-2|---------------|---------------|-4-4-4-----------| x1
|---------------|2-2-2-2-2-2-2-2|0-0-0-0-0-0-0-0|--------2---2-2--|
|---------------|---------------|---------------|-----------------|

       

CHORUS 3 Part 1 (03:09)
|---------------|---------------|---------------|-----------------|
|2-2-2-4/6--4\-2|------4/6-\-4-2|---------------|-4-4-4-----------| x1
|---------------|2-2-2----------|0-0-0-2-2-2-4-4|-------2---2-2---|
|---------------|---------------|---------------|-----------------|  



CHORUS 3 Part 2  (03:17)  
|---------------|---------------|---------------|--------------/4--|
|2-2-2-4/6--4\-2|------4/6-\-4-2|---------------|-----------------4| x1
|---------------|2-2-2----------|0-0-0-0-0-0-0-0|---4------2-------|
|---------------|---------------|---------------|-------2----------| 



GUITAR SOLO (03:27)
|---------------|---------------|---------------|-----------------|
|---------------|---------------|---------------|-----------------| x3
|4---2-4-2------|----2-4-2------|----2-4-2------|--0---4-2-----2-3|
|--4-------4-2-4|4-4-------4-2-4|2-4-------4-2-4|----0-------4----|



END (03:51)
|---------------|---------------|---------------|-----------------|
|---------------|---------------|---------------|-------------4---| x1
|4---2-4-2------|----2-4-2------|----2-4-2------|--0----2---------|
|--4-------4-2-4|4-4-------4-2-4|2-4-------4-2-4|-----------------|





Comments


Popular Pascale Picard tabs & chords
Feeling Better Chords
Gate 22 Chords
Gate 22 1 Chords
Nobodys Here To Break Your Heart Chords
Smilin Chords
Feeling Better Ukulele
Gate 22 Ukulele
Nobodys Here To Break Your Heart Ukulele
Smilin Ukulele
Sorry Ukulele


Song lyrics



↑ Back to top | Tablatures and chords are parodies/interpretations of the original songs. You may use it for private study, scholarship, research or language learning purposes only
© 2014 AZChords.com Contact us | Privacy policy | DMCA | Add/correct tabs | Request tabs | Top 50 tabs