» » »

Sick And Tired Tabs (ver.2)

Artists:  A B C D E F G H I J K L M N O P Q R S T U V W X Y Z # 

Sick And Tired Tabs (ver.2)

Pasadena
Rating:
0/5 (0 votes)

Hard to play? Try these video lessons and learn fast.
                CAPO 5

Intro-
    C             G               Am              F
e-------------------------------------------------------3p0----------|
b--------1-------------0--------------0h1-----1-------1--------------|
g-----------0---0---------0---0-----------2---------2----------------|
d-------------2-------------0-----2---------2-----3------------------|
a---3----------------------------------------------------------------|
e------------------3-------------------------------------------------|

Picking Verse-

"Scr*pe to get by..."
   C               G              Am            F
e--------------------------------------------------------------------|
b--------1-------------0--------------1-----1------1-----1-----------|
g-----------0---0---------0---0---------2------------2---------------|
d-------------2-------------0-----2-------2-----3------3-------------|
a---3----------------------------------------------------------------|
e------------------3-------------------------------------------------|
              (((X2)))                 (((X2)))

Strumming Verse(The whole song until outro)-

Strumming pattern is natural and easy to figure out.

(When switching chords, do a pull off of all the notes as you change.)

"I'm Sick and tired..."
   C               G              Am            F
e--0---------------3--------------0-------------0----------------------|
b--1---------------0--------------1-------------1----------------------|
g--0---------------0--------------2-------------2----------------------|
d--2---------------0--------------2-------------3----------------------|
a--3---------------2--------------0-------------0----------------------|
e--0---------------3--------------0-------------0----------------------|
             (((X12)))               (((X12)))

Outro(Almost exactly the same as the intro)-

   C               G              Am            F               C
e--------------------------------------------------------3p0--------0--|
b--------1-------------0--------------0h1-----1--------1-----------1---|
g-----------0---0---------0---0-----------2----------2------------0----|
d-------------2-------------0-----2---------2------3---------3---2-----|
a---3--------------------------------------------0--------------3------|
e------------------3---------------------------------------------------|
 Great Song, hope you like it!
            
Hard to play? Try these video lessons and learn fast. | Correct




comments powered by Disqus
↑ Back to top | Tablatures and chords are parodies/interpretations of the original songs. You may use it for private study, scholarship, research or language learning purposes only