» » »

Partisans, Police Story Tabs (ver.2)

Artists:  A B C D E F G H I J K L M N O P Q R S T U V W X Y Z # 

Police Story Tabs (ver.2)

Partisans Tabs
 Rating:
4.2/5 (5 votes)
Police Story lessons Tabs too difficult? Try these video lessons and learn fast
                I dont know the little thing they do in the beggining so i just play this and it sounds 
the end of it.then after playing the first part just strum fast from the first fret i 
to the last.

1|-----------------|------------|
2|---------21^2-1-2|2-----------|
3|123212321--------|3---------13|
4|-----------------|4---------14|
5|-----------------|4---------14|
6|-----------------|2---------12|

This is the main part of the song.it repeats 4 times after the first two.Then the chorus 
in.The strumming is pretty fast like with most of their songs.

1|-------------------------------------------------------|
2|-------------------------------------------------------|
3|13-13--13-13-13----9--9---9--9--9-8-8--8-8-8---4-4--6-6|
4|14-14--14-14-14---10-10--10-10-10-9-9--9-9-9---5-5--7-7|
5|14-14--14-14-14---10-10--10-10-10-9-9--9-9-9---5-5--7-7|
6|12-12--12-12-12----8--8---8--8--8-7-7--7-7-7---3-3--5-5|

Chorus happens after the 4 repeats of the main part.repeats twice

1|--------------------------------------------|
2|--------------------------------------------|
3|8-8-8-8-8--8-8---4-6---8-8-8-8-8--8-8--11-10|
4|9-9-9-9-9--9-9---5-7---9-9-9-9-9--9-9--12-11|
5|9-9-9-9-9--9-9---5-7---9-9-9-9-9--9-9--12-11|
6|7-7-7-7-7--7-7---3-5---7-7-7-7-7--7-7--10--9|

Chorus 2

1|---------------------|
2|---------------------|
3|8-8--6-6--4-x-3-3-3-3|
4|9-9--7-7--5-x-4-4-4-4|
5|9-9--7-7--5-x-4-4-4-4|
6|7-7--5-5--3-x-2-2-2-2|
            
Submit corrections

comments powered by Disqus
↑ Back to top | Partisans Tabs for Police Story. Lyrics for acoustic guitar and electric guitar. Tablatures and chords are parodies/interpretations of the original songs. You may use it for private study, scholarship, research or language learning purposes only