» » »

Sorry Na Bass tabs (ver.1)

Artists:  A B C D E F G H I J K L M N O P Q R S T U V W X Y Z # 

Sorry Na Bass tabs (ver.1)

Parokya Ni Edgar
Rating:
0/5 (0 votes)

Tabs too difficult? Try these video lessons and learn fast.
                My First Tab. Yeaaah !

70% Sure lang ako sa tabs ko, bahala na kayo magbago ng mga nota. 
Basta ishare niyo saken.
 
Intro

(Bass comes in at 00:11)

G|---2\6~x---------6---6h7-9~--9p7-6-----6----------|
D|---3\7~~--7--7-9--7~---------------7h9---7~-------|
A|--------------------------------------------------|
E|--------------------------------------------------|

Verse 1
                    Pause             Pause
G|--------------------|-----------------|------------------------------|
D|-------------7h9-7x-|---------6h7p6---|------------------------------|
A|------------x-------|--------x------7-|--4h5-7~---7p5-4-----4--------|
E|-----x0-4-5---------|--x0-4-5---------|------------------5h7-5~------|


Verse 2

G|--------------------|-----------------|--------------------------------|
D|-------------7h9-9x-|---------6h7p6---|--------------------------------|
A|--------------------|---------------7-|--7~-5~-4x------5~-4~-----------|
E|-----x0-4-5---------|--x0-4-5---------|------------4h5-------5~x-------|

Chorus (Idea)
Hindi ako sure sa Chorus pero ito ang idea ko, Paartehan niyo nalang,
langyan ng octaves. Bahala na kayo. Hindi ko lang kasi marinig, 
Masiyadong malakas yung Distortion nung lead eh.
G|---------------------------------------------------------------|
D|---------------------------------------------------------------|
A|---------------------------------------------------------------|
E|---5~55xx5~5-5x555-0-4~44xx4~4-4x444-0-2~22xx2~2-2x222---------|

G|-------------------------|
D|-------------------------|
A|--5-5-5-5-5/-77777777----|
E|-------------------------|

G|-------------------------|
D|-------------------------|
A|--5-5-5-5-5/-7-77-7h9p7--|
E|-------------------------|


Riff 6

G|---------------|-----------------|---------------------|------------------|
D|--------7h9-9x-|---------6h7p6---|---------------------|------------------|
A|-------x-------|---------------7-|------4~-5~-6~-7-9/--|--5-5-5-5-7777777-|
E|-x0-4-5--------|--x0-4-5---------|--xx5~---------------|------------------|

Verse Fill 1

G|--------------------|--------------------|--------------------------------|
D|------------7h9-9x--|---------6h7p6------|--------------------------------|
A|--------------------|---------------7----|--4h5-7~---5h4-------4----------|
E|--x-x-4-5-5---------|--x4-5-5------------|----------------5-5h7-5~--------|

Verse Fill 2

G|--------------------|--------------------|--------------------------------|
D|------------7h9-9x--|---------6h7p6------|--------------------------------|
A|--------------------|---------------7----|-----x7~---5h4--------4---------|
E|--x-x-4-5-5---------|--x4-5-5------------|----------------5-5h7---5~------|

Verse Fill 3

G|--------------------|--------------------|--------------------------------|
D|------------7h9-9x--|---------6h7p6------|--------------------------------|
A|--------------------|---------------7----|--7~-5~-4x----5~-4~-------------|
E|--x-x-4-5-5---------|--x4-5-5------------|------------x-------5~----------|

Verse Fill 4

G|--------------------|--------------------|--------------------------------|
D|------------7h9/11~-|---------6h7-7/9~---|--------------------------------|
A|--------------------|--------------------|--4h5-7~---5h4-------4----------|
E|--x-x-4-5-5---------|--x4-5-5------------|----------------5-5h7-5~--------|

Isiksik niyo nalang itong mga "Verse Fill" sa mga parts ng mga verse.
Pero naka arrange narin. Pakinggan niyo nalang yung kanta kung saan nakalagay.
:D


                                                 -an*lBlast (Lance)
            
Tabs too difficult? Try these video lessons and learn fast.




comments powered by Disqus
↑ Back to top | Tablatures and chords are parodies/interpretations of the original songs. You may use it for private study, scholarship, research or language learning purposes only