» » »

Sampip Tabs (ver.4)

Artists:  A B C D E F G H I J K L M N O P Q R S T U V W X Y Z # 

Sampip Tabs (ver.4)

Parokya Ni Edgar
Rating:
0/5 (0 votes)

Hard to play? Try these video lessons and learn fast.
                ako si jesse tiongco..ngsubmit uli ako kasi kulang ung sinubmit kong tab ng sampip 
ung kumpleto..sana mgustuhan nyo..enjoy c", )
SOLO:

e|----------------------------------------------------------------------|
B|------------------------15--------------------------------------------|
G|-------12--12-14-14b14bf—14br-12-14-12---------------9-11-12-12/14-14-|
D|--12/14--14---------------------------14------9-10-12-----------------|
A|-----------------------------------------10-12------------------------|
E|----------------------------------------------------------------------|

e|------------------------------|
B|--17-17po15-------------------|
G|-----------16-17-16-14-16-17--|
D|------------------------------|
A|------------------------------|
E|------------------------------|


e|---------------------------------------------------------------------|
B|--15-15-13-15-13-15-13-13/15-----------------------------------------|
G|--14-14-12-14-12-14-12------14/16—16\14-12-14-12-12--11--12--14-12---|
D|---------------------------------------------------14--14--14-----14-|
A|---------------------------------------------------------------------|
E|---------------------------------------------------------------------|

e|--------------------------------|
B|--------------------------------|
G|--14/16-14-12-12h14-12-11-12----|
D|--------------------------------|
A|--------------------------------|
E|--------------------------------|

OUTRO:

e|--------------------------------------------------------------------|
B|--------------------------------------------------------------------|
G|-----16-16--16-14--14-------------16-14--------------14/16po14—14---|
D|--/17-----17-----17--17-14-17-16-------17-16-17-14-17---------17----|
A|--------------------------------14-----------------15---------------|
E|--------------------------------------------------------------------|

e|-----------------------------------------------------------|
B|---------15----15----15----15----15-15/17-17-15-13-12-13---|
G|----14h16—14h16—14h16—14h16—14h16—--14/16-16-14-12---------|
D|--17-------------------------------------------------------|
A|-----------------------------------------------------------|
E|-----------------------------------------------------------|

e|------------------------------------------------------------------|
B|--13/15-13-12-----------------------------------------------------|
G|-------------14po12-11-12-11h12po11-------------------------------|
D|-----------------------------------14-12h14po12--------12h14------|
A|-----------------------------------------------14-12h14-----------|
E|------------------------------------------------------------------|

e|------------------------------------------------------------------|
B|--------------------------------------15----17-----15-------------|
G|----------------------------------14bf—-17bf—-17/19--17-16--------|
D|--16/17-16-14-16/17-17/19-17-16-17--------------------------------|
A|------------------------------------------------------------------|
E|------------------------------------------------------------------|

e|-------------------------------------------------------------------|
B|---------------------------------------------------------------20--|
G|-------------------------------------------------------/16-19bf—19-|
D|--16h17-16-14--17-16-14-----------10----12----14-17-19b------------|
A|-------------17--------14\\--10/12—12/14—14/15---15----------------|
E|-------------------------------------------------------------------|

e|---------------------------------------------------------------------|
B|--13-12-13-15-13-12-13-12h13po12-------------------------------------|
G|--12-12-12-12-12-12-12----------14-16-161616161616161616161616161616-|
D|---------------------------------------------------------------------|
A|---------------------------------------------------------------------|
E|---------------------------------------------------------------------|

e|-------------------------------------------------|
B|----------------------------------15-------------|
G|--14-12-14-12-----------------14bf—14br-12-------|
D|-------------14------12-14-/12------------14-12--|
A|----------------12/14----------------------------|
E|-------------------------------------------------|


~~~~~~~~~~~~~~~~~~~~~~~~~~~~~END~~~~~~~~~~~~~~~~~~~~~~~~~~~~~
            
Hard to play? Try these video lessons and learn fast. | Correct




comments powered by Disqus
↑ Back to top | Tablatures and chords are parodies/interpretations of the original songs. You may use it for private study, scholarship, research or language learning purposes only