» » »

Parokya Ni Edgar, Parol Ni Edgar Tabs (ver.1)

Artists:  A B C D E F G H I J K L M N O P Q R S T U V W X Y Z # 

Parol Ni Edgar Tabs (ver.1)

Parokya Ni Edgar Tabs
Rating:
0/5 (0 votes)
Parol Ni Edgar lessons Tabs too difficult? Try these video lessons and learn fast
                

*note: i tabbed the notes that were most audible on the song*

Intro: (2x)

   E		      E/F#    		 E/G#          A4		
e--------------------------------------------------------------------------|
B--------------------------------------------------------------0h2p0-------|
G--------------1--------------1h2p1--------------4p1-1h2-----2---------2---|
D------2---2h4---2--------2---------2--------2-------------2---------2-----|
A----2---2---------2----0---0---------0----0---0---------0-----------------|
E--0------------------2------------------4---------------------------------|

   E		      E/F#    		 E/G#          A4		
e--------------------------------------------------------------------------|
B------------------------------------------------4p0-----------0h2p0-------|
G--------------1--------------1h2p1--------------------------2-------1h2p1-|
D------2---2h4---2--------2---------2--------2-------1h2---2---------------|
A----2---2---------2----0---0---------0----0---0---------0-----------------|
E--0------------------2------------------4---------------------------------|


Verse1: [Do intro]
Ang parol ni edgar ay sinabit namin sa bintana
ang lahat ng tao sa kalsada ay tumingala

Refrain1:
  C#m		  B            A4
e----------0------------0------------0-0-------0---------|
B--5-------5------------4------------0---2-------2-------|
G------6-------6------4-----4------2-------2-------2-----|
D----6---6---6------4-----4------2-----------0-------0---|
A--4--------------2------------0-------------------------|
E--------------------------------------------------------|

ano bang parol na yan? bakit sila namamangha?
sa isang parol na gawa lang ng bata

Verse2: [Do intro]
Ang parol ni edgar ay sinabit namin sa bintana
umulan umaraw di parin namin binababa

[Refrain2: Do Refrain1]
ano bang parol na yan? hindi kaba nagsasawa?
sa isang parol na gawa lang ng bata

[Adlib: Do intro]

Verse3: [Do intro]
Ang parol ni edgar ay sinabit namin sa bintana
hindi binababa hanggang sa siyay maging binata 

[Refrain3: Do refrain1]
tuwing pasko kaming lahat ay natutuwa
sa isang parol na gawa lang ng bata (5x)

[Outro]							     [End]		      	

e-------7p4-5p4-----4h5--s12----------7p4-5p4----------------|---||
B-----5---------5-5---------------5-----------5-5-5h7-5-4h5--|-5-||
G-4h6-------------------------4h6---4------------------------|---||
D------------------------------------------------------------|---||
A------------------------------------------------------------|---||
E------------------------------------------------------------|---||
            
Submit corrections

comments powered by Disqus
↑ Back to top | Parokya Ni Edgar Tabs for Parol Ni Edgar. Lyrics for acoustic guitar and electric guitar. Tablatures and chords are parodies/interpretations of the original songs. You may use it for private study, scholarship, research or language learning purposes only