>
 >
Iisang Sarap

Iisang Sarap Guitar Tabs

Parokya Ni Edgar - Iisang Sarap chords, tabs, tablatures, lyrics

Guitar lessons | Add/correct | Request | Top 50 tabs Artists:  A B C D E F G H I J K L M N O P Q R S T U V W X Y Z 0-9

Iisang Sarap Guitar Tabs – Parokya Ni Edgar

CD, Sheet music, Poster

Do you like Iisang Sarap? Share with your friends now
ChordsTabsUkulele

I don’t expect that I was play this song because the time I download this song is so easy

/ = slide back

“Standard tuning”

===== Intro =====

Guitar 1
e-----------------------------------------------------------------|
B-----------------------------------------------------------------|
G-----------------------------------------------------------------|
D----7--7--7--7---------------------------------------------------|
A----7--7--7--7---------------------------------------------------|
E----5--5--5--5---------------------------------------------------|

Guitar 2
e-------9-9-9-10-9------------------------------------------------|
B------------------12-10------------12-10-------------------------|
G-----------------------10-10s12-10-------------------------------|
D-----------------------------------------------------------------|
A-----------------------------------------------------------------|
E-----------------------------------------------------------------|

e-----------------------------------------------------------------|
B------10-12-12s14-14-14-16-16-14-12------------------------------|
G------------------------------------14-12------------------------|
D-----------------------------------------------------------------|
A-----------------------------------------------------------------|
E-----------------------------------------------------------------|

e-----------------------------------------------------------------|
B----------------12-10--------------------------------------------|
G-------10s12-10--------------------------------------------------|
D-----------------------------------------------------------------|
A-----------------------------------------------------------------|
E-----------------------------------------------------------------|

e-----------------------------------------------------------------|
B-------10-12s16-14-12-------12-14s16-----------------------------|
G----------------------14-12--------------------------------------|
D-----------------------------------------------------------------|
A-----------------------------------------------------------------|
E-----------------------------------------------------------------|

===== Verse =====


Guitar 1 – medium fast

e|----------------------------------------------------------------|
B|----------------------------------------------------------------|
G|----------------------------------------------------------------|
D|--7--7--7--7--7--7--7--9--9--9--9--9----------------------------|
A|--7--7--7--7--7--7--7--9--9—-9--9—-9----------------------------|
E|--5--5--5--5--5--5--5--7--7--7--7--7----------------------------|

e|----------------------------------------------------------------|
B|----------------------------------------------------------------|
G|----------------------------------------------------------------|
D|--7--7--7--7--7--7--7--9--9--9--9--9----------------------------| X4
A|--5--5--5--5--5--5--5--7--7--7--7--7----------------------------|
E|----------------------------------------------------------------|


===== Chorus =====
Guitar 1

e|------------------------------------------------------------------- |
B|------------------------------------------------------------------- |
G|------------------------7--7--7--7--7---9--9--9--9--9-----------|-- |
D|---7--7--7--7--7--7--7--7--7--7--7--7---9--9--9--9--9-----------|-- |
A|---7--7--7--7--7--7--7--5--5--5--5--5---7--7--7--7--7-----------|-- |
E|---5--5--5--5--5--5--5------------------------------------------|-- |
                                                                        X2
e|----------------------------------------------------------------|-- |
B|----------------------------------------------------------------|-- |
G|----------------------7--7--7--7--7--9--9--9--9--9-7--7--7--7--7|-- |
D|-7--7--7--7--7--7--7--7--7--7--7--7--9--9--9--9--9-7--7--7--7--7|-- |
A|-7--7--7--7--7--7--7--5--5--5--5--5--7--7--7--7--7-5--5--5--5--5|-- |
E|-5--5--5--5--5--5--5--------------------------------------------|-- |


Guitar 2 - They play this bit live but you can’t here it very well on the recording.


e-------7s8-7-5-7-5-----------------------------------------------|
B------------------7--5-------------------------------------------|
G-----------------------------------------------------------------| x2
D-----------------------------------------------------------------|
A-----------------------------------------------------------------|
D-----------------------------------------------------------------|

This will be the 3rd  lyrics “walang ibang langhap sarap”


e-----7s8-7-------------------------------------------------------|
B-----------10--8--7----------------------------------------------|
G-----------------------------------------------------------------|
D-----------------------------------------------------------------|
A-----------------------------------------------------------------|
D-----------------------------------------------------------------|

===== Verse =====


(REPEAT LNG PO UNG VERSE and CHORUS)
(DI KO PA TAPOS UNG 2nd intro eh..)

===== BRIDGE =====

“AT KAHIT CNU MAKASMA”

Bagsak lng po
e|----------------------------------------------------------------|
B|----------------------------------------------------------------|
G|----------------------------------------------------------------|
D|--7--7--7--7--7--7--7--9--9--9--9--9----------------------------|
A|--7--7--7--7--7--7--7--9--9—-9--9—-9----------------------------|
E|--5--5--5--5--5--5--5--7--7--7--7--7----------------------------|

e|----------------------------------------------------------------|
B|----------------------------------------------------------------|
G|----------------------------------------------------------------|
D|--7--7--7--7--7--7--7--9--9--9--9--9----------------------------| x4
A|--5--5--5--5--5--5--5--7--7--7--7--7----------------------------|
E|----------------------------------------------------------------|

===== CHORUS =====
(same chords acoustic lng po) X2

(DISCORTED N PO)
e|----------------------------------------------------------------|
B|----------------------------------------------------------------|
G|------------------------7--7--7--7--7---9--9--9--9--9-----------|
D|---7--7--7--7--7--7--7--7--7--7--7--7---9--9--9--9--9-----------|
A|---7--7--7--7--7--7--7--5--5--5--5--5---7--7--7--7--7-----------|
E|---5--5--5--5--5--5--5------------------------------------------|

e|----------------------------------------------------------------|
B|----------------------------------------------------------------|
G|----------------------7--7--7--7--7--9--9--9--9--9-7--7--7--7--7|
D|-7--7--7--7--7--7--7--7--7--7--7--7--9--9--9--9--9-7--7--7--7--7|
A|-7--7--7--7--7--7--7--5--5--5--5--5--7--7--7--7--7-5--5--5--5--5|
E|-5--5--5--5--5--5--5--------------------------------------------|
ULITIN LNG

LAST
“ITO ANG LANGHAP SARAP NG BURGER YUM”
e|----------------------------------------------------------------|
B|----------------------------------------------------------------|
G|----------------------7--7--7--7--7--9--9--9--9--9-7--7--7--7--7|
D|-7--7--7--7--7--7--7--7--7--7--7--7--9--9--9--9--9-7--7--7--7--7|
A|-7--7--7--7--7--7--7--5--5--5--5--5--7--7--7--7--7-5--5--5--5--5|
E|-5--5--5--5--5--5--5--------------------------------------------|

OUTRO:

e|-------------9b-2x--12------------------------------------------|
B|----------------------12—10/------------------------------------|
G|----------------------------------------------------------------|
D|----------------------------------------------------------------|
A|----------------------------------------------------------------|
E|----------------------------------------------------------------|





Comments


Popular Parokya Ni Edgar tabs & chords
Mr Suave Bass Tabs
Maybe Someday Chords
One And Only You 7 Chords
Pangarap Lang Kita 1 Chords
Iwanan Mo Na Siya 1 Tabs
Mang Jose 1 Tabs
Nakaw Ang Walet Ko Tabs
Silvertoes 4 Tabs
Buttsins Ukulele
Kaleidoscope Wolrd Ukulele


Song lyrics



↑ Back to top | Tablatures and chords are parodies/interpretations of the original songs. You may use it for private study, scholarship, research or language learning purposes only
© 2014 AZChords.com Contact us | Privacy policy | DMCA | Add/correct tabs | Request tabs | Top 50 tabs