» » »

Parokya Ni Edgar, Alumni Homecoming Bass tabs (ver.3)

Artists:  A B C D E F G H I J K L M N O P Q R S T U V W X Y Z # 

Alumni Homecoming Bass tabs (ver.3)

Parokya Ni Edgar Tabs
 Rating:
4/5 (4 votes)
Alumni Homecoming lessons Tabs too difficult? Try these video lessons and learn fast
1
                Alumni Homecoming (revised)
Parokya ni Edgar

Verse1 napaibig mo ako
G|-----------------|-----------------|
D|-----------------|-----------------|
A|-----------------|-5-5-5-5-5-5-5-5-|
E|-----------------|-----------------|

Verse2(3x)
G|----------------11p9-9------13p11-11------9p7-7-|
D|-----9p7-7--------------------------------------|
A|------------7-7---------9-9-----------5-5-------|
E|-5-5--------------------------------------------|

G|----------------11p9-9------13p11-11----------------|
D|-----9p7-7-----------------------------6p4-4--------|
A|------------7-7---------9-9-------------------5p4-5-|
E|-5-5------------------------------------------------|

Chorus1 
G|-------------------------------------------------------------------|
D|-------------------------------------------------------------------|
A|-----------------7-7-7-7-7-7-7-7--9-9-9-9-9-9-9-9--5-5-5-5-5-5-5-5-|
E|-5-5-5-5-5-5-5-5---------------------------------------------------|

G|---------------------------------------------------------|
D|---------------------------------------------------------|
A|-----------------7-7-7-7-7-7-7-7--9------5-5-5-5-5-5-5-5-|
E|-5-5-5-5-5-5-5-5-----------------------------------------|

Instrumental 
G|-------------------------------------------------------------------|
D|-------------------------------------------------------------------|
A|-----------------7-7-7-7-7-7-7-7--9-9-9-9-9-9-9-9--5-5-5-5-5-5-5-5-|
E|-5-5-5-5-5-5-5-5---------------------------------------------------| 2x

Verse3
G|----------------11p9-9------13p11-11--11p9-9---9p7-7-|
D|-----9p7-7-------------------------------------------|
A|------------7-7---------9-9--------------------------|
E|-5-5-------------------------------------------------|

G|----------------11p9-9------11----11p9--9p7--7p6-7-|
D|-----9p7-7-----------------------------------------|
A|------------7-7---------9-9-----5------------------|
E|-5-5-----------------------------------------------|

G|----------------11p9-9------13p11-11---9--7-----------------|
D|-----9p7-7----------------------------------9p7-------------|
A|------------7-7---------9-9----------------------9p7--7p5-5-|
E|-5-5--------------------------------------------------------|

G|----------------------------------------------------|
D|----------------------------------------------------|
A|--------7-7--------9-9-9-9-9-9-9-9--5-5-5-5-5-5-5-5-|
E|-5-5---------0-2------------------------------------|

G|-------------------------------------------------------------------|
D|-------------------------------------------------------------------|
A|-----------------7-7-7-7-7-7-7-7--9-9-9-9-9-9-9-9--5-5-5-5-5-5-5-5-|
E|-5-5-5-5-5-5-5-5---------------------------------------------------|

G|------------------------------------------------------------------------|
D|--------------------------------------------------------------12-12-12\-|
A|-----------------7-7-7-7-7-7-7-7--9-9-9-9-9-9-9-9--5-5-5-5-5/-----------|
E|-5-5-5-5-5-5-5-5--------------------------------------------------------|

Chorus2 
G|-------------------------------------------------------------------|
D|-------------------------------------------------------------------|
A|-----------------7-7-7-7-7-7-7-7--9-9-9-9-9-9-9-9--5-5-5-5-5-5-5-5-|
E|-5-5-5-5-5-5-5-5---------------------------------------------------|2x

Adlib 
G|-------------------------------------------------------------------|
D|-------------------------------------------------------------------|
A|-----------------7-7-7-7-7-7-7-7--9-9-9-9-9-9-9-9--5-5-5-5-5-5-5-5-|
E|-5-5-5-5-5-5-5-5---------------------------------------------------|3x

G|-------------------------------------------7--7--7-|
D|---------------------------------------------------|
A|-----------------7-7-7-7-7-7-7-7--9--9--9----------|
E|-5-5-5-5-5-5-5-5-----------------------------------|

Verse4 
G|----------------------------|------------------------|
D|----------------------------|------------------------|
A|-------7-7---9-9---5-5--x-x-|------7-7---x-9-9---5-5-|
E|-5-5------------------------|-5-5--------------------|

G|-----------------13p11-11------9p7-7-|
D|-------------------------------------|
A|-------7-7---9-9-----------5-5-------|
E|-5-5---------------------------------|

G|----------------11p9-9------13p11-11----------------|
D|-----9p7-7-----------------------------6p4-4--------|
A|------------7-7---------9-9-------------------5p4-5-|
E|-5-5------------------------------------------------|

G|-------------------------------------------------------------------|
D|-------------------------------------------------------------------|
A|-----------------7-7-7-7-7-7-7-7--9-9-9-9-9-9-9-9--5-5-5-5-5-5-5-5-|
E|-5-5-5-5-5-5-5-5---------------------------------------------------|

G|------------------------------------------------------------------------|
D|--------------------------------------------------------------12-12-12\-|
A|-----------------7-7-7-7-7-7-7-7--9-9-9-9-9-9-9-9--5-5-5-5-5/-----------|
E|-5-5-5-5-5-5-5-5--------------------------------------------------------|

Chorus3
G|-------------------------------------------------------------------|
D|-------------------------------------------------------------------|
A|-----------------7-7-7-7-7-7-7-7--9-9-9-9-9-9-9-9--5-5-5-5-5-5-5-5-|
E|-5-5-5-5-5-5-5-5---------------------------------------------------|3x

G|--------------------------------------------------------|
D|--------------------------------------------------------|
A|-----------------7-7-7-7-7-7-7-7--9-----5-5-5-5-5-5-5-5-|
E|-5-5-5-5-5-5-5-5----------------------------------------|

G|-------------------------------------------------------------------|
D|-------------------------------------------------------------------|
A|-----------------7-7-7-7-7-7-7-7--9-9-9-9-9-9-9-9--5-5-5-5-5-5-5-5-|
E|-5-5-5-5-5-5-5-5---------------------------------------------------|3x

G|---------------------------------------------------------------|
D|---------------------------------------------------------------|
A|-----------------7-7-7-7-7-7-7-7--9-9-9-9-9-9-9-9-9/---5-5-5-5-|
E|-5-5-5-5-5-5-5-5-----------------------------------------------|
            
Submit corrections

comments powered by Disqus
↑ Back to top | Parokya Ni Edgar Bass for Alumni Homecoming. Lyrics for acoustic guitar and electric guitar. 1 Tablatures and chords are parodies/interpretations of the original songs. You may use it for private study, scholarship, research or language learning purposes only