>
 >
Smoke Em If You Got Em 2

Smoke Em If You Got Em 2 Guitar Tabs

Parkway Drive - Smoke Em If You Got Em 2 chords, tabs, tablatures, lyrics

Guitar lessons | Add/correct | Request | Top 50 tabs Artists:  A B C D E F G H I J K L M N O P Q R S T U V W X Y Z 0-9

Smoke Em If You Got Em 2 Guitar Tabs – Parkway Drive

CD, Sheet music, Poster

Do you like Smoke Em If You Got Em 2? Share with your friends now
TabsTabs v2Tabs v3Tabs v4Tabs v5





Tab is in form  Guitar 1 on top, Guitar 2 below.

Guitar 1:


0.00  0.29

play X 6
C#|----------------------------------------------------------------------|
G#|-555-333--------------------------------------------------------------|
E |---------555-444-555-444-222-------------222-----444-222--------------|
B |-----------------------------555-444-555-----555---------555-444------|
F#|----------------------------------------------------------------------|
B |----------------------------------------------------------------------|


0.29  0.31

Play X 1
C#|--------------------------------------|
G#|--------------------------------------|
E |--------------------------------------|
B |-0~-----------------\\\\--------------|
F#|-0~-----pick slide--\\\\--------------|
B |-0~-----------------\\\\--------------|


0.31  0.51

Play X 4
C#|----------------------------------------------------------------------|
G#|----------------------------------------------------------------------|
E |----------------------------------------------------------------------|
B |-----------------5----------------------------------------------------|
F#|-----8-7-5---------7-8-------8-7-5------3---5-----0h7h8-0h3h5---------|
B |-0-0-------0-0-0-------0-0-0--------0-0---0---0-0---------------------|
    * *       * * *       * * *        * *   *   * *


0.51  0.53

Play X 1
C#|----------------------------------------------------------------------|
G#|----------------------------------------------------------------------|
E |----------------------------------------------------------------------|
B |-000-000-000-000-0-0-0-0----Pause for 4 seconds-----------------------|
F#|-000-000-000-000-0-0-0-0----------------------------------------------|
B |-000-000-000-000-0-0-0-0----------------------------------------------|
    *** *** *** *** * * * *


0.57  1.06

Play X 4
C#|----------------------------------------------------------------------|
G#|----------------------------------------------------------------------|
E |----------------------------------------------------------------------|
B |-000-000-000-000-0-0-0-0----------------------------------------------|
F#|-000-000-000-000-0-0-0-0----------------------------------------------|
B |-000-000-000-000-0-0-0-0----------------------------------------------|
    *** *** *** *** * * * *


1.07  1.16

Play X 2
C#|----------------------------------------------------------------------|
G#|----------------------------------------------------------------------|
E |----------------------------------------------------------------------|
B |-----------------5----------------------------------------------------|
F#|-----8-7-5---------7-8-------8-7-5------3---5-----0h7h8-0h3h5---------|
B |-0-0-------0-0-0-------0-0-0--------0-0---0---0-0---------------------|
    * *       * * *       * * *        * *   *   * *


1.16  1.26

Play X 2
C#|----------------------------------------------------------------------|
G#|----------------------------------------------------------------------|
E |----------------------------------------------------------------------|
B |-------------------10-------------------------------------------------|
F#|-----12-10-8----------10-12-------12-10-8-----7---8-----0h8h10-0h7h8--|
B |-0-0---------0-0-0----------0-0-0---------0-0---0---0-0---------------|
    * *         * * *          * * *         * *   *   * *


1.26  1.37

Play X 2
C#|----------------------------------------------------------------------|
G#|----------------------------------------------------------------------|
E |----------------------------------------------------------------------|
B |----------------------------------------------------------------------|
F#|-----7-5-8---8-7-10---10-8-12---5-7-----5-7-8---7-8-------------------|
B |-0-0-------0--------0---------0-----0-0-------0-----------------------|
    * *       *        *         *     * *       *


Play this part X 2 second time round.
C#|-------------------------|
G#|-1h3p1-------------------|
E |-------0h2p0-------------|
B |-------------0h2p0-------|
F#|-------------------0h2p0-|
B |-------------------------|


1.37  1.57

Play X 1
C#|----------------------------------------------------------------------|
G#|-------------#--------------------------------------------------------|
E |-------------2brb-----------------------------------------------------|
B |----------------------------------------------------------------------|
F#|-0-000-0-000------0-000-0-000-0-000-0-000-#----0-000-0-000-0-000-0-0--|
B |-0-000-0-000------0-000-0-000-0-000-0-000-3brb-0-000-0-000-0-000-0-0--|
    * *** * ***      * *** * *** * *** * ***      * *** * *** * *** * *


1.57 - 2.10

Play X 2
C#|----------------------------------------------------------------------|
G#|----------------------------------------------------------------------|
E |----------------------------5h7p5----------------------3--------------|
B |-------\\\\-8-8--7-7--5-7-8-------8-7--7-7--5-5--3-5-7---7-5-3--------|
F#|-slide-\\\\-5-5--5-5-------------------3-3--3-3-----------------------|
B |-------\\\\-5-5--5-5-------------------3-3--3-3-----------------------|
                                                    * * * * * * *

2.10  2.23

Play X 2
C#|----------------------------------------------------------------------|
G#|----------------------------------------------------------------------|
E |----------------------------------------------------------------------|
B |-------\\\\-8-8--7-7-------------------7-7--5-5-----------------------|
F#|-slide-\\\\-5-5--5-5-------------------3-3--3-3-----------------------|
B |-------\\\\-5-5--5-5-------------------3-3--3-3-----------------------|

For people who are new to tapping... All you have to do is tap the fret and pull-off 
a finger on your picking hand (usually the middle finger because your holding the plectrum, 
though
the guy who plays this uses his index) whilst keeping a finger on your fretting hand
on the fret your going to be pulling off onto.


2.23  3.00

Play X 6
C#|----------------------------------------------------------------------|
G#|-11p8-11p8-11p8-11p8-11p8-11p8-11p8-11p8-10p8-10p8-10p8-10p8----------|
E |----------------------------------------------------------------------|
B |----------------------------------------------------------------------|
F#|----------------------------------------------------------------------|
B |----------------------------------------------------------------------|


C#|----------------------------------------------------------------------|
G#|-10p8-10p8-10p8-10p8-10p6-10p6-10p6-10p6-10p6-10p6-10p6-10p6----------|
E |----------------------------------------------------------------------|
B |----------------------------------------------------------------------|
F#|----------------------------------------------------------------------|
B |----------------------------------------------------------------------|

C#|----------------------------------------------------------------------|
G#|-8p6-8p6-8p6-8p6-8p6-8p6-8p6-8p6--------------------------------------|
E |----------------------------------------------------------------------|
B |----------------------------------------------------------------------|
F#|----------------------------------------------------------------------|
B |----------------------------------------------------------------------|


3.00  3.03

Play X 2
C#|-----------------|
G#|-----------------|
E |-----------------|
B |-5-3-5-7-8-7-5-3-|
F#|-----------------|
B |-----------------|
    * * * * * * * *


3.03 - 3.06

Play X 2
C#|----------------------|
G#|----------------------|
E |----------------------|
B |----------------------|
F#|-8-7-8-10-12-10-8-7---|
B |----------------------|
    * * * *  *  *  * *


3.06 - 3.09

Play X 2
C#|-----------------|
G#|-----------------|
E |-----------------|
B |-5-3-5-7-8-7-5-3-|
F#|-----------------|
B |-----------------|
    * * * * * * * *

3.09 - 3.11

Play X 1
C#|--------------------------|
G#|--------------------------|
E |--------------------------|
B |----------------------#---|
F#|-8-7-8-10-12-10-8-7---7br-|
B |--------------------------|
    * * * *  *  *  * *


3.12  3.25

Play X 1
C#|----------------------------------------------------------------------|
G#|----------------------------------------------------------------------|
E |-------7-----------7---------------7-----------7----------------------|
B |-1-000-x-000-1-000-x-00-1/3--1-000-x-000-1-000-x-00-1/3---------------|
F#|-1-000-5-000-1-000-5-00-1/3--1-000-5-000-1-000-5-00-1/3---------------|
B |-1-000---000-1-000---00-1/3--1-000---000-1-000---00-1/3---------------|
    * ***   *** * ***   **      * ***   *** * ***   **
C#|----------------------------------------------------------------------|
G#|----------------------------------------------------------------------|
E |-------7-----------7---------------7----------------------------------|
B |-1-000-x-000-1-000-x-00-1/3--1-000-x-000-11111111-4444-3333-----------|
F#|-1-000-5-000-1-000-5-00-1/3--1-000-5-000-11111111-4444-3333-----------|
B |-1-000---000-1-000---00-1/3--1-000---000-11111111-4444-3333-----------|
    * ***   *** * ***   **      * ***   *** ******** **** ****

3.25  3.38

Play X 2
C#|----------------------------------------------------------------------|
G#|----------------------------------------------------------------------|
E |----------------------------------------------------------------------|
B |-1-0000-1-0000-1-0000-1-0000-1-0000-1-0000-11111111-4444-3333---------|
F#|-1-0000-1-0000-1-0000-1-0000-1-0000-1-0000-11111111-4444-3333---------|
B |-1-0000-1-0000-1-0000-1-0000-1-0000-1-0000-11111111-4444-3333---------|
    * **** * **** * **** * **** * **** * **** ******** **** ****


3.38 -----

Play X 1
C#|----------------------------------------------------------------------|
G#|----------------------------------------------------------------------|
E |----------------------------------------------------------------------|
B |-0-0------------------------------------------------------------------|
F#|-0-0------------------------------------------------------------------|
B |-0-0------------------------------------------------------------------|

Guitar 2:


0.00  0.09

Play X 2
C#|----------------------------------------------------------------------|
G#|-555-333--------------------------------------------------------------|
E |---------555-444-555-444-222-------------222-----444-222--------------|
B |-----------------------------555-444-555-----555---------555-444------|
F#|----------------------------------------------------------------------|
B |----------------------------------------------------------------------|


0.09  0.29

Play X 4
C#|----------------------------------------------------------------------|
G#|----------------------------------------------------------------------|
E |----------------------------------------------------------------------|
B |-------22222222-0000-555-444-222-000----------------------------------|
F#|-slide-22222222-0000--------------------------------------------------|
B |-------22222222-0000--------------------------------------------------|
          ******** **** *** *** *** ***


0.29  0.31

Play X 1
C#|--------------------------------------|
G#|--------------------------------------|
E |--------------------------------------|
B |-0~-----------------\\\\--------------|
F#|-0~-----pick slide--\\\\--------------|
B |-0~-----------------\\\\--------------|


0.31  0.51

play X 4
C#|----------------------------------------------------------------------|
G#|----------------------------------------------------------------------|
E |----------------------------------------------------------------------|
B |-----------------5----------------------------------------------------|
F#|-----8-7-5---------7-8-------8-7-5------3---5-----0h7h8-0h3h5---------|
B |-0-0-------0-0-0-------0-0-0--------0-0---0---0-0---------------------|
    * *       * * *       * * *        * *   *   * *


0.53  1.06

Play X 5
C#|----------------------------------------------------------------------|
G#|----------------------------------------------------------------------|
E |----------------------------------------------------------------------|
B |-000-000-000-000-0-0-0-0----------------------------------------------|
F#|-000-000-000-000-0-0-0-0----------------------------------------------|
B |-000-000-000-000-0-0-0-0----------------------------------------------|
    *** *** *** *** * * * *


1.07  1.26

Play X 4
C#|----------------------------------------------------------------------|
G#|----------------------------------------------------------------------|
E |----------------------------------------------------------------------|
B |-----------------5----------------------------------------------------|
F#|-----8-7-5---------7-8-------8-7-5------3---5-----0h7h8-0h3h5---------|
B |-0-0-------0-0-0-------0-0-0--------0-0---0---0-0---------------------|
    * *       * * *       * * *        * *   *   * *


1.26  1.37

Play X 2
C#|----------------------------------------------------------------------|
G#|----------------------------------------------------------------------|
E |----------------------------------------------------------------------|
B |----------------------------------------------------------------------|
F#|-----7-5-8---8-7-10---10-8-12---5-7-----5-7-8---7-8-------------------|
B |-0-0-------0--------0---------0-----0-0-------0-----------------------|
    * *       *        *         *     * *       *


Play this part X 2 second time round.
C#|-------------------------|
G#|-1h3p1-------------------|
E |-------0h2p0-------------|
B |-------------0h2p0-------|
F#|-------------------0h2p0-|
B |-------------------------|


1.37  1.57

Play X 1
C#|----------------------------------------------------------------------|
G#|-------------#--------------------------------------------------------|
E |-------------2brb-----------------------------------------------------|
B |----------------------------------------------------------------------|
F#|-0-000-0-000------0-000-0-000-0-000-0-000-#----0-000-0-000-0-000-0-0--|
B |-0-000-0-000------0-000-0-000-0-000-0-000-3brb-0-000-0-000-0-000-0-0--|
    * *** * ***      * *** * *** * *** * ***     * *** * *** * *** * *


1.57 - 2.10

Play X 2
C#|----------------------------------------------------------------------|
G#|----------------------------------------------------------------------|
E |----------------------------------------------------------------------|
B |-------\\\\-8-8--7-7-------------------7-7--5-5-----------------------|
F#|-slide-\\\\-5-5--5-5-------------------3-3--3-3-----------------------|
B |-------\\\\-5-5--5-5-------------------3-3--3-3-----------------------|


2.10  2.23

Play X 2
C#|----------------------------------------------------------------------|
G#|-11-11-11-11-11-11-11--10-10-10-10-10-10-10-10------------------------|
E |-x--x--x--x--x--x--x----x--x--x--x--x--x--x--x------------------------|
B |-8--8--8--8--8--8--8----7--7--7--7--7--7--7--7------------------------|
F#|----------------------------------------------------------------------|
B |----------------------------------------------------------------------|

C#|----------------------------------------------------------------------|
G#|-10-10-10-10-10-10-10-8-8-8-8-8-8-8-8---------------------------------|
E |-x--x--x--x--x--x--x--x-x-x-x-x-x-x-x---------------------------------|
B |-7--7--7--7--7--7--7--5-5-5-5-5-5-5-5---------------------------------|
F#|----------------------------------------------------------------------|
B |----------------------------------------------------------------------|

C#|-----------------|
G#|-----------------|
E |-----------------|
B |-5---------------|
F#|-5---------------|
B |-5---------------|


2.29  2.35

Play X 1
C#|----------------------------------------------------------------------|
G#|----------------------------------------------------------------------|
E |----------------------------------------------------------------------|
B |-8~~-8~~-5~~-5~~------------------------------------------------------|
F#|-5~~-5~~-3~~-3~~------------------------------------------------------|
B |-5~~-5~~-3~~-3~~------------------------------------------------------|


2.35  3.00

Play X 4
C#|----------------------------------------------------------------------|
G#|----------------------------------------------------------------------|
E |----------------------------------------------------------------------|
B |-8-----8-----8---7-----7-----7---7-----7-----7---5-----5-----5--------|
F#|----------------------------------------------------------------------|
B |---5-5---5-5---5---5-5---5-5---5---3-3---3-3---3---3-3---3-3---3------|
    * * * * * * * * * * * * * * * * * * * * * * * * * * * * * * * *


3.00  3.12

Play X 2
C#|----------------------------------------------------------------------|
G#|----------------------------------------------------------------------|
E |----------------------------------------------------------------------|
B |-7-7-7-7777-7--7-7-7-7777-7--5-5-5-5555-5--5-5-5-5555-5---------------|
F#|-5-5-5-5555-5--5-5-5-5555-5--3-3-3-3333-3--3-3-3-3333-3---#-----------|
B |-5-5-5-5555-5--5-5-5-5555-5--3-3-3-3333-3--3-3-3-3333-3---7br---------|
    * * * **** *  * * * **** *  * * * **** *  * * * **** *


3.12  3.25

Play X 1
C#|----------------------------------------------------------------------|
G#|----------------------------------------------------------------------|
E |-------7-----------7---------------7-----------7----------------------|
B |-1-000-x-000-1-000-x-00-1/3--1-000-x-000-1-000-x-00-1/3---------------|
F#|-1-000-5-000-1-000-5-00-1/3--1-000-5-000-1-000-5-00-1/3---------------|
B |-1-000---000-1-000---00-1/3--1-000---000-1-000---00-1/3---------------|
    * ***   *** * ***   **      * ***   *** * ***   **

C#|----------------------------------------------------------------------|
G#|----------------------------------------------------------------------|
E |-------7-----------7---------------7----------------------------------|
B |-1-000-x-000-1-000-x-00-1/3--1-000-x-000-11111111-4444-3333-----------|
F#|-1-000-5-000-1-000-5-00-1/3--1-000-5-000-11111111-4444-3333-----------|
B |-1-000---000-1-000---00-1/3--1-000---000-11111111-4444-3333-----------|
    * ***   *** * ***   **      * ***   *** ******** **** ****


3.25 - 3.38

Play X 2
C#|----------------------------------------------------------------------|
G#|----------------------------------------------------------------------|
E |----------------------------------------------------------------------|
B |-1-0000-1-0000-1-0000-1-0000-1-0000-1-0000-11111111-4444-3333---------|
F#|-1-0000-1-0000-1-0000-1-0000-1-0000-1-0000-11111111-4444-3333---------|
B |-1-0000-1-0000-1-0000-1-0000-1-0000-1-0000-11111111-4444-3333---------|
    * **** * **** * **** * **** * **** * **** ******** **** ****


3.38 -----

Play X 1
C#|----------------------------------------------------------------------|
G#|----------------------------------------------------------------------|
E |----------------------------------------------------------------------|
B |-0-0------------------------------------------------------------------|
F#|-0-0------------------------------------------------------------------|
B |-0-0------------------------------------------------------------------|





Comments


Popular Parkway Drive tabs & chords
Pandora Bass Tabs
Romance Is Dead Bass Tabs
Alone Intro Tabs
Carrion Tabs
Carrion 1 Tabs
Dark Days 3 Tabs
Gimme A D 1 Tabs
Its Hard To Speak Without A Tounge Intro Tabs
Romance Is Dead 1 Tabs
Sirens Song Tabs


Song lyrics



↑ Back to top | Tablatures and chords are parodies/interpretations of the original songs. You may use it for private study, scholarship, research or language learning purposes only
© 2014 AZChords.com Contact us | Privacy policy | DMCA | Add/correct tabs | Request tabs | Top 50 tabs