>
 >
Smoke Em If You Got Em

Smoke Em If You Got Em Guitar Tabs

Parkway Drive - Smoke Em If You Got Em chords, tabs, tablatures, lyrics

Guitar lessons | Add/correct | Request | Top 50 tabs Artists:  A B C D E F G H I J K L M N O P Q R S T U V W X Y Z 0-9

Smoke Em If You Got Em Guitar Tabs – Parkway Drive

CD, Sheet music, Poster

Do you like Smoke Em If You Got Em? Share with your friends now
TabsTabs v2Tabs v3Tabs v4Tabs v5
Intro
C#||-----------------------------|--------------------------------|
G#||-----------------------------|--------------------------------|
E ||--9--7----------------------- |-------------------------------|
B ||--------10--9--10--9--7------|---------7------9--7------------|
F#||-------------------------10--|--9--10-----10--------10--9-----|
B ||----------------------------- |-------------------------------|

-----------------------------|-----------------------------|
-----------------------------|-----------------------------|
--9--7-----------------------|-----------------------------|
--------10--9--10--9--7------|---------7------9--7---------|
-------------------------10--|--9--10-----10--------10--9--|
-----------------------------|-----------------------------|

-----------------------------|-----------------------------|
-----------------------------|-----------------------------|
--9--7-----------------------|-----------------------------|
--------10--9--10--9--7------|---------7------9--7---------|
-------------------------10--|--9--10-----10--------10--9--|
-----------------------------|-----------------------------|

-----------------------------|-----------------------------|
-----------------------------|-----------------------------|
--9--7-----------------------|-----------------------------|
--------10--9--10--9--7------|---------7------9--7---------|
-------------------------10--|--9--10-----10--------10--9--|
-----------------------------|-----------------------------|

-----------------------------|-----------------------------|
-----------------------------|-----------------------------|
--9--7-----------------------|-----------------------------|
--------10--9--10--9--7------|---------7------9--7---------|
-------------------------10--|--9--10-----10--------10--9--|
-----------------------------|-----------------------------|

-----------------------------|-----------------------------|
-----------------------------|-----------------------------|
--9--7-----------------------|-----------------------------|
--------10--9--10--9--7------|---------7------9--7---------|
-------------------------10--|--9--10-----10--------10--9--|
-----------------------------|-----------------------------|

--------------------|-------------------------------|
--------------------|-------------------------------|
--------------------|-------------------------------|
--------------------|--------------------5----------|
--10~---------------|------8-7-5-----------7-8------|
--------------------|--0-0--------0-0--0--------0-0-|

-------------------------------|-------------------------------|
-------------------------------|-------------------------------|
-------------------------------|-------------------------------|
-------------------------------|--------------------5----------|
-----8-7-5----3---5---7-8-7-5--|------8-7-5-----------7-8------|
---0--------0---0---0----------|--0-0--------0-0--0--------0-0-|

-------------------------------|-------------------------------|
-------------------------------|-------------------------------|
-------------------------------|-------------------------------|
-------------------------------|--------------------5----------|
-----8-7-5----3---5---7-8-7-5--|------8-7-5-----------7-8------|
---0--------0---0---0----------|--0-0--------0-0--0--------0-0-|

-------------------------------|-------------------------------|
-------------------------------|-------------------------------|
-------------------------------|-------------------------------|
-------------------------------|--------------------5----------|
-----8-7-5----3---5---7-8-7-5--|------8-7-5-----------7-8------|
---0--------0---0---0----------|--0-0--------0-0--0--------0-0-|


                                Breakdown
-------------------------------|------------------|--------------------------|
-------------------------------|------------------|--------------------------|
-------------------------------|------------------|--------------------------|
-------------------------------|------------------|--------------------------|
-----8-7-5----3---5---7-8-7-5--|------------------|--0--0--0--0--0-0-0-0-----|
---0--------0---0---0----------|------------------|--0--0--0--0--0-0-0-0-----|

--------------------------|--------------------------|
--------------------------|--------------------------|
--------------------------|--------------------------|
--------------------------|--------------------------|
--0--0--0--0--0-0-0-0-----|--0--0--0--0--0-0-0-0-----|
--0--0--0--0--0-0-0-0-----|--0--0--0--0--0-0-0-0-----|

--------------------------|--------------------------|
--------------------------|--------------------------|
--------------------------|--------------------------|
--------------------------|--------------------------|
--0--0--0--0--0-0-0-0-----|--0--0--0--0--0-0-0-0-----|
--0--0--0--0--0-0-0-0-----|--0--0--0--0--0-0-0-0-----|


verse riff:
-------------------------------|-------------------------------|
-------------------------------|-------------------------------|
-------------------------------|-------------------------------|
--------------------5----------|-------------------------------|
------8-7-5-----------7-8------|-----8-7-5----3---5---7-8-7-5--|
--0-0--------0-0--0--------0-0-|---0--------0---0---0----------|

-------------------------------|-------------------------------|
-------------------------------|-------------------------------|
-------------------------------|-------------------------------|
--------------------5----------|-------------------------------|
------8-7-5-----------7-8------|-----8-7-5----3---5---7-8-7-5--|
--0-0--------0-0--0--------0-0-|---0--------0---0---0----------|

-------------------------------|-------------------------------|
-------------------------------|-------------------------------|
-------------------------------|-------------------------------|
--------------------5----------|-------------------------------|
------8-7-5-----------7-8------|-----8-7-5----3---5---7-8-7-5--|
--0-0--------0-0--0--------0-0-|---0--------0---0---0----------|

-------------------------------|-------------------------------|
-------------------------------|-------------------------------|
-------------------------------|-------------------------------|
--------------------5----------|-------------------------------|
------8-7-5-----------7-8------|-----8-7-5----3---5---7-8-7-5--|
--0-0--------0-0--0--------0-0-|---0--------0---0---0----------|

-------------------------------|-----------------------------------------|
-------------------------------|-----------------------------------------|
-------------------------------|-----------------5h7h5-------------------|
-----------------5----5-7------|-----------------------5h7h5-------------|
------5-7-8--7-8----8------7-8-|------5-7-8--7-8-------------5h7h5-------|
--0-0--------------------------|--0-0------------------------------5h8h5-|

-------------------------------|-----------------------------------------|
-------------------------------|-----------------------------------------|
-------------------------------|-----------------5h7h5-------------------|
-----------------5----5-7------|-----------------------5h7h5-------------|
------5-7-8--7-8----8------7-8-|------5-7-8--7-8-------------5h7h5-------|
--0-0--------------------------|--0-0------------------------------5h8h5-|


                           Breakdown 2                                P.H
--------------------------|----------------------|-------------------------|
--------------------------|----------------------|-------------------------|
--5h7h5-------------------|----------------------|--------------------7----|
--------5h7h5-------------|--0------0--0-0-------|--0------0--0-0-0--------|
--------------5h7h5-------|--0------0--0-0-------|--0------0--0-0-0--------|
--------------------5h8h5-|--0------0--0-0-------|--0------0--0-0-0--------|

----------------------|------------------------|----------------------|
----------------------|------------------------|----------------------|
----------------------|------------------------|----------------------|
--0------0--0-0-------|--0------0--0-0-0-------|--0------0--0-0-------|
--0------0--0-0-------|--0------0--0-0-0-------|--0------0--0-0-------|
--0------0--0-0-------|--0------0--0-0-0-------|--0------0--0-0-------|


                    P.H
-------------------------|----------------------|------------------------|
-------------------------|----------------------|------------------------|
--------------------5----|----------------------|------------------------|
--0------0--0-0-0--------|--0------0--0-0-------|--0------0--0-0-0-------|
--0------0--0-0-0--------|--0------0--0-0-------|--0------0--0-0-0-------|
--0------0--0-0-0--------|--0------0--0-0-------|--0------0--0-0-0-------|

----------------------|-------------------------|--------------------------|
----------------------|-------------------------|--------------------------|
----------------------|-------------------------|------------5h7p5---------|
--0------0--0-0-------|--0------0--0-0-0---0----|--5---5-7-8-------8-7-----|
--0------0--0-0-------|--0------0--0-0-0---0----|--5-----------------------|
--0------0--0-0-------|--0------0--0-0-0---0----|--5-----------------------|


                    etc.
-------------------------|-------------------|-------------------|
-------------------------|-------------------|-------------------|
------------3------------|-------------------|-------------------|
--3---3-5-7---7-5-3------|--5----------------|--3----------------|
--3----------------------|--5----------------|--3----------------|
--3----------------------|--5----------------|--3----------------|

----------------------|---------------------|----------------------|
--11--------10--------|--10--------8--------|--11--------10--------|
----------------------|---------------------|----------------------|
----------------------|---------------------|----------------------|
----------------------|---------------------|----------------------|
----------------------|---------------------|----------------------|


                       tapping, right tapped notes, unsure about the 0's
---------------------|------------------------------------------|
--10--------8--------|--11h0t11h0t11h0t11h0t10h0t10h0t10h0t10h0t|
---------------------|------------------------------------------|
---------------------|--0t-8h0t-8h0t-8h0t-8h0t-7h0t-7h0t-7h0t-7t|
---------------------|------------------------------------------|
---------------------|------------------------------------------|

--------------------------------------|
--10h0t10h0t10h0t10h0t8h0t8h0t8h0t8h0t|
--------------------------------------|
--0t-7h0t-7h0t-7h0t-7h0t5h0t5h0t5h0t5t|
--------------------------------------|
--------------------------------------|

------------------------------------------|
--11h0t11h0t11h0t11h0t10h0t10h0t10h0t10h0t|
------------------------------------------|
--0t-8h0t-8h0t-8h0t-8h0t-7h0t-7h0t-7h0t-7t|
------------------------------------------|
------------------------------------------|

--------------------------------------|
--10h0t10h0t10h0t10h0t8h0t8h0t8h0t8h0t|
--------------------------------------|
--0t-7h0t-7h0t-7h0t-7h0t5h0t5h0t5h0t5t|
--------------------------------------|
--------------------------------------|

------------------------------------------|
--11h0t11h0t11h0t11h0t10h0t10h0t10h0t10h0t|
------------------------------------------|
--0t-8h0t-8h0t-8h0t-8h0t-7h0t-7h0t-7h0t-7t|
------------------------------------------|
------------------------------------------|

--------------------------------------|
--10h0t10h0t10h0t10h0t8h0t8h0t8h0t8h0t|
--------------------------------------|
--0t-7h0t-7h0t-7h0t-7h0t5h0t5h0t5h0t5t|
--------------------------------------|
--------------------------------------|

------------------------------------------|
--11h0t11h0t11h0t11h0t10h0t10h0t10h0t10h0t|
------------------------------------------|
--0t-8h0t-8h0t-8h0t-8h0t-7h0t-7h0t-7h0t-7t|
------------------------------------------|
------------------------------------------|

--------------------------------------|
--10h0t10h0t10h0t10h0t8h0t8h0t8h0t8h0t|
--------------------------------------|
--0t-7h0t-7h0t-7h0t-7h0t5h0t5h0t5h0t5t|
--------------------------------------|
--------------------------------------|

------------------------------------------|
--11h0t11h0t11h0t11h0t10h0t10h0t10h0t10h0t|
------------------------------------------|
--0t-8h0t-8h0t-8h0t-8h0t-7h0t-7h0t-7h0t-7t|
------------------------------------------|
------------------------------------------|

--------------------------------------|
--10h0t10h0t10h0t10h0t8h0t8h0t8h0t8h0t|
--------------------------------------|
--0t-7h0t-7h0t-7h0t-7h0t5h0t5h0t5h0t5t|
--------------------------------------|
--------------------------------------|

------------------------------------------|
--11h0t11h0t11h0t11h0t10h0t10h0t10h0t10h0t|
------------------------------------------|
--0t-8h0t-8h0t-8h0t-8h0t-7h0t-7h0t-7h0t-7t|
------------------------------------------|
------------------------------------------|

--------------------------------------|----------------------------------|
--10h0t10h0t10h0t10h0t8h0t8h0t8h0t8h0t|----------------------------------|
--------------------------------------|----------------------------------|
--0t-7h0t-7h0t-7h0t-7h0t5h0t5h0t5h0t5t|--5---5-7-8-7-5---5---5-7-8-7-5---|
--------------------------------------|----8-----------8---8-----------8-|
--------------------------------------|----------------------------------|

----------------------------------|----------------------------------|
----------------------------------|----------------------------------|
----------------------------------|----------------------------------|
--------5-7-5-----------5-7-5-----|--5---5-7-8-7-5---5---5-7-8-7-5---|
--8-7-8-------8-7-8-7-8-------8-7-|----8-----------8---8-----------8-|
----------------------------------|----------------------------------|

--------------------------|-----------------------------------------|
--------------------------|-----------------------------------------|
--------------------------|--7--------7--------7--------7-----------|
--------5-7-5-------------|--7-0-0-0--7-0-0-0--7-0-0-0--7-0-0-3-4-5-|
--8-7-8-------8-7---------|--0-0-0-0--0-0-0-0--0-0-0-0--0-0-0-3-4-5-|
--------------------------|--0-0-0-0--0-0-0-0--0-0-0-0--0-0-0-3-4-5-|

----------------------------------------|| until end, except for the last few
----------------------------------------|| which is similar, just have a listen.
--7--------7--------7--------7----------||
--7-0-0-0--7-0-0-0--7-0-0-0--7-0--3-4-5-||
--0-0-0-0--0-0-0-0--0-0-0-0--0-0--3-4-5-||
--0-0-0-0--0-0-0-0--0-0-0-0--0-3--3-4-5-||





Comments


Popular Parkway Drive tabs & chords
A Cold Day In Hell 1 Tabs
Alone Tabs
Begin 3 Tabs
Gimmie A D Tabs
Pandora 2 Tabs
Picture Perfect Pathetic Tabs
Samsara Intro Tabs
Sleepwalker 4 Tabs
Sparks Tabs
Wild Eyes Tabs


Song lyrics



↑ Back to top | Tablatures and chords are parodies/interpretations of the original songs. You may use it for private study, scholarship, research or language learning purposes only
© 2014 AZChords.com Contact us | Privacy policy | DMCA | Add/correct tabs | Request tabs | Top 50 tabs