» » »

Parkway Drive, Sleepwalker Tabs (ver.1)

Artists:  A B C D E F G H I J K L M N O P Q R S T U V W X Y Z # 

Sleepwalker Tabs (ver.1)

Parkway Drive Tabs
Rating:
0/5 (0 votes)
Sleepwalker lessons Tabs too difficult? Try these video lessons and learn fast
                Hey this is my first tab, just heard the new song love it, so i decided to tab it out. I 
it's not perfect, but oh well! Enjoy!
Please rate and comment!

Drop A# (Drop Bb)

Intro muffled at the start but distorted at [0:10]
|-------------------------------------------------------------------| {x4}
|-------------------------------------------------------------------|
|-------------------------------------------------------------------|
|-------------------------------0-2s3-------------------------------|
|-----0h3h5----0h3h5----0h3h5---------------------------------------|
|-0-0-------0--------0--------0-------------------------------------|

Verse [0:24]
|-------------------------------------------------------------------| {x4}
|-------------------------------------------------------------------|
|-------------------------------------------------------------------|
|--------55-------77------------33-33-22-33-------------------------|
|-------------------------------------------55-55-3-5---------------|
|-00-00-----00-00-----00-00-----------------------------------------|
                              (all of this bit is slightly PM)
Back to the intro riff
|-------------------------------------------------------------------| {x4}
|-------------------------------------------------------------------|
|-------------------------------------------------------------------|
|-------------------------------0-2s3-------------------------------|
|-----0h3h5----0h3h5----0h3h5---------------------------------------|
|-0-0-------0--------0--------0-------------------------------------|


Post chorusy breakdown [0:56]
|-------------------------------------------------------------------|
|-------------------------------------------------------------------|
|-7-------------------7---------------------------------------------|
|-7-------------------7--------------000000333333-335555555s7777777-|
|-5---00-00-00-00-00--5--00-00-00-----------------------------------|
|-----00-00-00-00-00-----00-00-00-----------------------------------|

|-------------------------------------------------------------------| {x3}
|-------------------------------------------------------------------|
|-------------------------------------------------------------------|
|-------------------------------------------------------------------|
|------------33-------------55--0h5h7h8-0h7h8h10-0h8h10h12-0h7h8h10-|
|000-000-000----000-000-000-----------------------------------------|

|-------------------------------------------------------------------|
|-------------------------------------------------------------------|
|-------------------------------------------------------------------|
|--------------------------------77-77-55-77-33-22-33---------------|
|------------33-------------5---------------------------------------|
|000-000-000----000-000-000-----------------------------------------|

Another verse[1:21]
|-------------------------------------------------------------------|{x4}
|-------------------------------------------------------------------|
|-------------------------------------------------------------------|
|--------------------------------77-77-55-77-33-22-33---------------|
|------------33-------------5---------------------------------------|
|000-000-000----000-000-000-----------------------------------------|

Mini breakdown [1:41]
|-------------------------------------------------------------------|{x4}
|-------------------------------------------------------------------|
|-------------------------------------------------------------------|
|--3~---------2~----------3------2----------------------------------|
|-----00~--------00~--------00-0---00-0---00-0--00-0---------00--0--|
|-----00~--------00~--------00-0---00-0---00-0--00-0---------00--0--|
                            .      .      ..    ..           ..  .

More of the intro riff [2:16]
|-------------------------------------------------------------------| {x6}
|-------------------------------------------------------------------|
|-------------------------------------------------------------------|
|-------------------------------0-2s3-------------------------------|
|-----0h3h5----0h3h5----0h3h5---------------------------------------|
|-0-0-------0--------0--------0-------------------------------------|
                           {on the 3rd time dont include there's a drum roll}

Slightly higher intro riff [2:39]
|-------------------------------------------------------------------| {x2}
|-------------------------------------------------------------------|
|-------------------------------------------------------------------|
|-----------------------------------5-5s8---------------------------|
|------0h7h8------0h7h8----0h7h8------------------------------------|
|-0-0----------0---------0------------------------------------------|

NOT ONE MORE STEP part [2:48]
|-------------------------------------------------------------------|
|-------------------------------------------------------------------|
|-------------------------------------------------------------------|
|--7-7-5-3------8-7-0~----------8-7-0~-----8-7-0~------8-7-0~-------|
|--------0------8-7-0~----------8-7-0~-----8-7-0~------8-7-0~-------|
|--------0------8-7-0~----------8-7-0~-----8-7-0~------8-7-0~-------|

Outro
Just keep repeating these chords until it ends because im too lazy to work out the lead!
|-------------------------------------------------------------------|
|-------------------------------------------------------------------|
|-------------------------------------------------------------------|
|-8-7-0~------8-7-0~------8-7-0~-------8-7-0~---------8-7-0~--------|
|-8-7-0~------8-7-0~------8-7-0~-------8-7-0~---------8-7-0~--------|
|-8-7-0~------8-7-0~------8-7-0~-------8-7-0~---------8-7-0~--------|

Right thats it!
Thanks for reading!
            

comments powered by Disqus
↑ Back to top | Parkway Drive Tabs for Sleepwalker. Lyrics for acoustic guitar and electric guitar. Tablatures and chords are parodies/interpretations of the original songs. You may use it for private study, scholarship, research or language learning purposes only