» » »

Sirens Song Tabs (ver.2)

Artists:  A B C D E F G H I J K L M N O P Q R S T U V W X Y Z # 

Sirens Song Tabs (ver.2)

Parkway Drive
Rating:
0/5 (0 votes)

Hard to play? Try these video lessons and learn fast.
                Parkway Drive
Sirens song
Horizons

this is an awesome song this is how i play it i think its pretty close maybe a 
few missed notes here and there but otehrwise its dead on.
. is palm mute
* pich harmonic
enjoy


it is tremolo picking
C#|-20-15-20-15-------------------------------------|
G#|-------------20-16-20-16-------------------------|
E |-------------------------19-15-19-15-------------|
B |-------------------------------------19-15-------|
F#|-------------------------------------------------|
B |-------------------------------------------------|

C#|-------------------------|
G#|-------------------------|
E |-------------------------|
B |-------------------------|
F#|-0-------0--0--0--0------|
B |-0-------0--0--0--0------|
    .       .  .  .  .
C#|---------------------------------|
G#|---------------------------------|
E |---------------------------------|
B |---------------------------------|
F#|----5---7h8-----3---5h7----3h5---|
B |-00----0-----00---0-----00-------|
    ..    .     ..   .     ..
C#|---------------------------------|
G#|---------------------------------|
E |---------------------------------|
B |--------------5-------7-5--------|
F#|----5--7h8------8-7-5----8-7-----|
B |-00--0----00---------------------|
    ..  .    ..


C#|--------------------------------------------------------------------|    
G#|--------------------------------------------------------------------|
E |--------------------------------------------------------------------|
B |--------------------------------------------------------------------|
F#|-8-5-0------------------------8-5-0--------------5h8p5-------7h10p7-|
B |-------8-5-0--000-000-000-000-------8-5-0---5h8p5------7h10p7-------|
                 ... ... ... ...                
C#|----------------------|
G#|----------------------|
E |----------------------|
B |----------------------|
F#|--------5---------7---|
B |--0h5h8----0h7h10-----|

BREAKDOWN b**chES
                                                                            
C#|-------------------------------|
G#|-------------------------------|
E |-------------------------------|
B |-------------------------------|
F#|-------------------------------|
B |-5p0h8p0---7p0h10p0---7p0h11p0-|              


C#|-------------------------|-------------------------------|
G#|-------------------------|-------------------------------|
E |-------------------------|-------------------------------|
B |-------------------------|-------------------------------|
F#|-0-0---00-00-0-0--00-00--|-------------------------------|
B |-0-0---00-00-0-0--00-00--|-5p0h8p0---8p0h12p0---7p0h10p0-|
    

C#|----------------------------|-------------------------------|
G#|----------------------------|-------------------------------|
E |----------------------------|-------------------------------|
B |----------------------------|-------------------------------|
F#|-0--0-----0--0-0--0---0--0--|-------------------------------|
B |-0--0-----0--0-0--0---0--0--|-5p0h8p0---7p0h10p0---5p0h3p0--|
    

C#|-------------------------|-------------------------------|
G#|-------------------------|-------------------------------|
E |-------------------------|-------------------------------|
B |-------------------------|-------------------------------|
F#|-0-0---00-00-0-0---00-00-|-------------------------------|
B |-0-0---00-00-0-0---00-00-|--5p0h8p0---8p0h12p0--7p0h10p0-|

1:33
C#|----------------------------|----------------------------|
G#|----------------------------|----------------------------|
E |----------------------------|----------------------------|
B |----------------------------|----------------------------|
F#|-0--0-----0--0-0--0--0-0----|-0--0-----0--0-0--0--0--0---|
B |-0--0-----0--0-0--0--0-0----|-0--0-----0--0-0--0--0--0---|


C#|---------------------------------|
G#|---------------------------------|
E |---------------------------------|
B |---------------------------------|
F#|----5---7h8----3---5h7----3h5----|
B |-00---0-----00---0-----00--------|
    ..   .     ..   .     ..
C#|---------------------------------|
G#|---------------------------------|
E |---------------------------------|
B |----------------5-------7-5------|
F#|----5---7h8-------8-7-5-----8-7--|
B |-00---0-----00-------------------|
    ..   .     ..

C#|-------------------------|
G#|-------------------------|
E |-------------------------|
B |-------------------------|
F#|-0-----------0--0--0--0--|
B |-0-----------0--0--0--0--|

Everything changes here ha
C#|-------------------------------|-------------------------------|
G#|-------------------------------|-------------------------------|
E |-------------------------------|-------------------------------|
B |---------------------5---------|-------------------------------|
F#|-----5--5------8-7---------7h8-|-----3--3------8-7---5-----3h5-|
B |-0-0-------0-0-----0---0-0-----|-0-0-------0-0-----0---0-0-----|
    . .       . .     .   . .       . .       . .     .   . .
C#|----------------------------------|-------------------------------------|
G#|----------------------------------|-------------------------------------|
E |----------------------------------|-------------------------------------|
B |----------------------------------|-------7-----------------5--------3-2|
F#|-----5--5------7h8---8h10---10h12-|-0h5h8----------8--0h3h7-------------|
B |-0-0-------0-0-----0------0-------|----------0h5h8-------------0h3h7----|
    . .       . .     .      .       
BREAKDOWN NUMERO DOS b**chES and bass fill
2:19                                                                       
C#|------------------------|
G#|------------------------|
E |------------------------|
B |------------------------|
F#|-0----------------0-1---|
B |-0----------------0-1---|
The Breakdown that you throw in there you can figure it out

C#|-------------------------|
G#|-------------------------|
E |-------------------------|
B |-------------------------|
F#|-4-3-1-0-1-3-1-----------|
B |-4-3-1-0-1-3-1-0---------|

C#|----------------------------------------------------|
G#|----------------------------------------------------|
E |----------------------------------------------------|
B |----------------------------------------------------|
F#|-0-----0---0--------0---0---0-----0---0---0----1----|
B |-0-0-0-0-0-0----0-0-0-0-0---0-0-0-0-0-0-0-0----1----|
PM    . .   .      . .   .       . .   .   .

The Breakdown that you throw in there you can figure it out

C#|-------------------------|
G#|-------------------------|
E |-------------------------|
B |-------------------------|
F#|-4-3-1-0-1-3-1-----------|
B |-4-3-1-0-1-3-1-0---------|

Now you play this part again at a slower tempo 
C#|----------------------------------------------------|---|
G#|----------------------------------------------------|---|
E |----------------------------------------------------|---|
B |----------------------------------------------------|---|
F#|-0-----0---0--------0---0---0-----0---0---0---------|---|
B |-0-0-0-0-0-0----0-0-0-0-0---0-0-0-0-0-0-0-0---------|-3*|only first time
PM    . .   .      . .   .       . .   .   .
reapeat and do the breakdown thing and the song is over
            
Hard to play? Try these video lessons and learn fast. | Correct




comments powered by Disqus
↑ Back to top | Tablatures and chords are parodies/interpretations of the original songs. You may use it for private study, scholarship, research or language learning purposes only