>
 >
Pandora

Pandora Guitar Tabs

Parkway Drive - Pandora chords, tabs, tablatures, lyrics

Guitar lessons | Add/correct | Request | Top 50 tabs Artists:  A B C D E F G H I J K L M N O P Q R S T U V W X Y Z 0-9

Pandora Guitar Tabs – Parkway Drive

CD, Sheet music, Poster

Do you like Pandora? Share with your friends now
Bass TabsTabsTabs v2Tabs v3Tabs v4Tabs v5Tabs v6
Parkway Drive - Pandora
Tuning: Drop B


Guitar 1:
C#|--5-------5-------1-------1------------------------------------------|\
G#|----6-8-5---6-8-5---3-5-1---3-5-1------------------------------------| |
E |---------------------------------------------------------------------| |x4
B |---------------------------------------------------------------------| |
F#|---------------------------------------------------------------------| |
B |---------------------------------------------------------------------|/

Guitar 2:
C#|---------------------------------------------------------------------|\
G#|---------------------------------------------------------------------| |
E |---------------------------------------------------------------------| |x2 
B |-0---------------8--------5------------------------------------------| |
F#|-0---------------8--------5------------------------------------------| |
B |-0---------------8--------5------------------------------------------|/

Guitar 2:
C#|---------------------------------------------------------------------|\
G#|---------------------------------------------------------------------| |
E |-----10-12-9-----10-12-9-----7-9-5-----7-9-5-------------------------| |x2
B |---------------------------------------------------------------------| |
F#|-0-0-8--10-7-0-0-8--10-7-0-0-5-7-3-0-0-5-7-3-------------------------| |
B |-0-0---------0-0---------0-0-------0-0-------------------------------|/

Guitar 1&2:
C#|---------------------------|-----------------------------------------|
G#|---------------------------|-------------------8---------------------| 
E |---------------------------|-----------------7---10\------9-10\------| 
B |--0--------10--5---3-------|-0--------10-----------------------------| 
F#|--0--------10--5---3-------|-0--------10-0-0----------0-0-7--8\------| 
B |--0--------10--5---3-------|-0--------10-0-0----------0-0------------|

-------------------------------0:33----------------------------------------
Guitar 1:
C#|---------------------------------------------------------------------|\
G#|---------------------------------------------------------------------| |
E |------10\-------10\----------10\---10-12-14-12-----------------------| |x2
B |---------------------------------------------------------------------| |
F#|-0000--8\--0000--8\--0000----8\----8--10-12-10-----------------------| |
B |-0000------0000------0000--------------------------------------------|/

Guitar 2:
C#|---------------------------------------------------------------------|\
G#|---------------------------------------------------------------------| |
E |---------------------------------------------------------------------| |x2
B |---------------------------------------------------------------------| |
F#|-0000------0000------0000----0000--000-000---------------------------| |
B |-0000------0000------0000----0000--000-000---------------------------|/

-------------------------------0:44----------------------------------------

Guitar 1:
C#|--5-------5-------1-------1------------------------------------------|\
G#|----6-8-5---6-8-5---3-5-1---3-5-1------------------------------------| |
E |---------------------------------------------------------------------| |x4
B |---------------------------------------------------------------------| |
F#|---------------------------------------------------------------------| |
B |---------------------------------------------------------------------|/

Guitar 2:                          
C#|----------------------------------|--------------------------------------|
G#|----------------------------------|--------------------------------------| 
E |------------------------9--9/10\9-|--------------------9-9/10\7-----9-10\| 
B |-0-------10----3----0-0-----------|-0------10----0-0---------------------| 
F#|-0-------10----3----0-0-7--7/8\7--|-0------10----0-0---7-7/8\7------7--8\| 
B |-0-------10----3----0-0-----------|-0------10----0-0-----------0-0-------|

Guitar 2:
C#|-------------------------------------------------------------------------|
G#|-------------------------------------------------------------------------| 
E |-----10-12-9-----10-12-9-----7-9-5-----7-9-5-----------------------------| 
B |-------------------------------------------------------------------------| 
F#|-0-0-8--10-7-0-0-8--10-7-0-0-5-7-3-0-0-5-7-3-----------------------------| 
B |-0-0---------0-0---------0-0-------0-0-----------------------------------|

Guitar 2:
C#|-------------------------------------------------------------------------|
G#|-------------------------------------------------------------------------| 
E |-----10-12-9-----10-12-9-----7-9-5---------------------------------------| 
B |-------------------------------------------------------------------------| 
F#|-0-0-8--10-7-0-0-8--10-7-0-0-5-7-3-0-------------------------------------| 
B |-0-0---------0-0---------0-0-------0-------------------------------------|

-------------------------------1:06----------------------------------------

Guitar 2:
C#|---------------------------------------------------------------------|\
G#|---------------------------------------------------------------------| |
E |---------------------------------------------------------------------| |x4
B |-0--------8---10-----------------------------------------------------| |
F#|-0--------8---10-----------------------------------------------------| |
B |-0--------8---10-----------------------------------------------------|/

Guitar 1:
C#|---------------------------------------------------------------------|\
G#|-----------10--------------------------------------------------------| |
E |------9h10---10-9-------------10----------12-------------------------| |x2
B |------------------10----10-12-------10-12----------------------------| |
F#|---------------------------------------------------------------------| |
B |---------------------------------------------------------------------|/

-------------------------------1:28----------------------------------------

Guitar 2:
C#|-------------------------------|
G#|-------------------------------| 
E |-------------------------------| 
B |-------------------------------| 
F#|-0-000----0-000----------------| 
B |-0-000----0-000----------------|

Guitar 2:
C#|---------------------------------------------------------------------|\
G#|---------------------------------------------------------------------| |
E |---------------------------------------------------------------------| |x4
B |-0-000---------0-000---------77777---------55555---------------------| |
F#|-0-000---------0-000---------77777---------55555---------------------| |
B |-0-000---------0-000---------77777---------55555---------------------|/

Guitar 1:
C#|-------5p0-3-5-------5p0-1-0-------0---------------------------------|\
G#|-------------------------------------1-3-0-------3-0-1-0-------------| |
E |---------------------------------------------------------------------| |x2
B |---------------------------------------------------------------------| |
F#|---------------------------------------------------------------------| |
B |---------------------------------------------------------------------|/

Guitar 1:
C#|-------1---0-1-------1-------------0-3-------------------------------|\
G#|---------3-------------0-3-0------------3--------3-0-1-3*------------| |
E |---------------------------------------------------------------------| |x2
B |---------------------------------------------------------------------| |
F#|---------------------------------------------------------------------| |
B |---------------------------------------------------------------------|/

-------------------------------1:55----------------------------------------

Guitar 1:
C#|---------------------------------------------------------------------|\
G#|---------------------------------------------------------------------| |
E |------10\-------10\----------10\---10-12-14-12-----------------------| |
B |---------------------------------------------------------------------| |
F#|-0000--8\--0000--8\--0000----8\----8-10-12-10------------------------| |
B |-0000------0000------0000--------------------------------------------|/

Guitar 2:
C#|---------------------------------------------------------------------|\
G#|---------------------------------------------------------------------| |
E |---------------------------------------------------------------------| |
B |---------------------------------------------------------------------| |
F#|-0000------0000------0000----0000--000-000---------------------------| |
B |-0000------0000------0000----0000--000-000---------------------------|/

Guitar 1:
C#|---------------------------------------------------------------------|\
G#|---------------------------------------------------------------------| |
E |------10\-------10\-------10\----------------------------------------| |
B |---------------------------------------------------------------------| |
F#|-0000--8\--0000--8\--0000--8\-0--pickscrape\\\-----------------------| |
B |-0000------0000------0000-----0--------------------------------------|/

Guitar 2:
C#|---------------------------------------------------------------------|\
G#|---------------------------------------------------------------------| |
E |---------------------------------------------------------------------| |
B |---------------------------------------------------------------------| |
F#|-0000------0000------0000-----0--12\---------------------------------| |
B |-0000------0000------0000-----0--12\---------------------------------|/

------------------------------2:06-----------------------------------------

Guitar 2:
C#|---------------------------------------------------------------------|\
G#|---------------------------------------------------------------------| |
E |---------------------------------------------------------------------| |x4
B |-0--------8---10-----------------------------------------------------| |
F#|-0--------8---10-----------------------------------------------------| |
B |-0--------8---10-----------------------------------------------------|/

Guitar 1:
C#|---------------------------------------------------------------------|\
G#|-----------10--------------------------------------------------------| |
E |------9h10---10-9-------------10----------12-------------------------| |x2
B |------------------10----10-12-------10-12----------------------------| |
F#|---------------------------------------------------------------------| |
B |---------------------------------------------------------------------|/

------------------------------2:28-----------------------------------------

Guitar 1:
C#|---------------------------------------------------------------------|\
G#|------5--5----5---5--------------------------------------------------| |
E |----5---5----5---5----2-5-3-2----------------------------------------| |x2
B |---------------------------------2-5-3-2-----------------------------| |
F#|---------------------------------------------------------------------| |
B |---------------------------------------------------------------------|/

Guitar 2:
C#|---------------------------------------------------------------------|\
G#|---------------------------------------------------------------------| |
E |---------------------------------------------------------------------| |x2
B |-------0---0-----0-----8---8-----8-----3----3-----3-----3---3-----3--| |
F#|-----0---------0-----8---------8-----3----------3-----3---------3----| |
B |---0-----0---0-----8-----8---8-----3-----3----3-----3-----3---3------|/

------------------------------2:54-----------------------------------------
Burn

Guitar 1:
C#|---------------------------------------------------------------------|\
G#|-------5----------5--------------------------------------------------| |
E |-----5---5------5---5-----2-5-3-2------------------------------------| |x2
B |----------7----------7--------------2-5-3-2--------------------------| |
F#|---------------------------------------------------------------------| |
B |---------------------------------------------------------------------|/

Guitar 1:
C#|---------------------------------------------------------------------|\
G#|---------5h6p5-------5h6p5-------------------------------------------| |
E |-------5-----------5---------2-5*-3-2--------------------------------| |x2
B |-----------------7----------------------2-5*-3-2---------------------| |
F#|---------------------------------------------------------------------| |
B |---------------------------------------------------------------------|/

Guitar 2:
C#|---------------------------------------------------------------------|\
G#|---------------------------------------------------------------------| |
E |---------------------------------------------------------------------| |x4
B |---------------------------------------------------------------------| |
F#|--0-0------8-8-----3-3-----3-3---------------------------------------| |
B |--0-0------8-8-----3-3-----3-3---------------------------------------|/

------------------------------3:19----------------------------------------

Guitar 1&2:
C#|---------------------------------------------------------------------|\
G#|---------------------------------------------------------------------| |
E |---------------------------------------------------------------------| |x2
B |-000-0-0--000-0-0--000-0-3--000-0-5----------------------------------| |
F#|-000-0-0--000-0-0--000-0-1--000-0-3----------------------------------| |
B |-000-0-0--000-0-0--000-0-3--000-0-5----------------------------------|/

Guitar 1&2:
C#|---------------------------------------------------------------------|\
G#|---------------------------------------------------------------------| |
E |--------7-----7---------7-----7-------7-----7------------------------| |x4
B |----------------------------------------------7p5p0-7p5p0------------| |
F#|-000-0--5-----5--000-0--5-----5-------5-----5------------8p7p0-8p7p0-| |
B |-000-0----0-0----000-0----0-0---000-0---0-0--------------------------|/



That's pretty much the song, not 100% but fairly close, guitar parts 1 & 2
are interchangable so either guitar can play bits outa each part if your
giggin this.





Comments


Popular Parkway Drive tabs & chords
Picture Perfect Pathetic Bass Tabs
Five Months Tabs
Guns For Show Knives For A Pro Tabs
Hollow Man Tabs
Home Is For The Heartless Tabs
Karma Tabs
Pandora 1 Tabs
Sleepwalker 6 Tabs
Swing Tabs
Unrest 1 Tabs


Song lyrics



↑ Back to top | Tablatures and chords are parodies/interpretations of the original songs. You may use it for private study, scholarship, research or language learning purposes only
© 2014 AZChords.com Contact us | Privacy policy | DMCA | Add/correct tabs | Request tabs | Top 50 tabs