>
 >
Gimme A D

Gimme A D Guitar Tabs

Parkway Drive - Gimme A D chords, tabs, tablatures, lyrics

Guitar lessons | Add/correct | Request | Top 50 tabs Artists:  A B C D E F G H I J K L M N O P Q R S T U V W X Y Z 0-9

Gimme A D Guitar Tabs – Parkway Drive

CD, Sheet music, Poster

Do you like Gimme A D? Share with your friends now
Bass TabsTabsTabs v2Tabs v3
C#|--7p5p0-7p5p0-7p5p0-7p5p0-7p5p0-7p5p0--|
G#|---------------------------------------|
E |---------------------------------------|
B |---------------------------------------|
F#|---------------------------------------|
B |---------------------------------------|

   play these notes a few more time tho
C#|7p5p0-7p5p0-7p5p0-7p5p0-7p5p0--------------------------------------|
G#|------------------------------8p7p0-8p7p0-7p5p0-7p5p0-5p3p0-5p3p0--|
E |-------------------------------------------------------------------|
B |-------------------------------------------------------------------|
F#|-------------------------------------------------------------------|
B |-------------------------------------------------------------------|

C#|--------------------------------------------|
G#|--------------------------------------------|
E |--------------------------------------------|
B |-2---------------9-----7h9------------------|
F#|-2---------7---------------------7---10-9-7-|
B |-2----5-5-----5-----5--------5-5---5--------|

C#|------------------------------------------------------||-------------|
G#|------------------------------------------------------||-------------|
E |------------------------------------------------------||-------------|
B |-2--10--9--7--9--10--9--7----3--10--9--7--9--10--9--7-||--------7----|
F#|------------------------------------------------------||--0h7h8---8--|
B |------------------------------------------------------||-------------|

C#|------------------------------------------------------|
G#|------------------------------------------------------|
E |------------------------------------------------------|
B |-2---------------------------3----------5-------------|
F#|-2---------------------------3----------5-------------|
B |-2---------------------------3----------5-------------|

C#|---------------------------------------|
G#|---------------------------------------|
E |---------------------------------------| 
B |--------7------------------------------|
F#|--0h7h8---8----------------------------|
B |---------------------------------------|

C#|-----------------------------------------------------------------|
G#|-----------------------------------------------------------------|
E |------------------------------------------10---9----7/9/5----5/7-|
B |-0---------------------------------------------------------------|
F#|-0----0-0-0-0-0----0-0-0-0-0----0-0-0-0-0--8---7----5/7/5----3/5-|
B |-0----0-0-0-0-0----0-0-0-0-0----0-0-0-0-0----0----0--------------|

C#|-----------------------|
G#|-----------------------|
E |-----------------------|
B |-3----------4----------|
F#|-3----3--3--4----4--4--|
B |-3----3--3--4----4--4--|

C#|--------------------------------------------------------------|
G#|--------------------------------------------------------------|
E |--------------------------------------------------------------|
B |-----8888-7-5-3-----8888-7-5-7-----5555-3-5-7------7777-5-7-8-|
F#|-5-5------------3-3------------1-1-------------3-3------------|
B |-5-5------------3-3------------1-1-------------3-3------------|

   Strum These Chords
C#|--------------------------------------------------------------|
G#|--------------------------------------------------------------|
E |--------------------------------------------------------------|
B |--------------------------------------------------------------|
F#|-5--------------3--------------1---------------3--------------|
B |-5--------------3--------------1---------------3--------------|

dunno the last part
C#|------------------------------------------------------------------|
G#|------------------------------------------------------------------|
E |--------------------------------------7-8--8/10-8-7-8-7-----------|
B |-7-8-10-8-7-8/10-8-7-5-3-2h3-5-7-8-10-------------------10--------|
F#|------------------------------------------------------------------|
B |------------------------------------------------------------------|

C#|------------------------------------------------------------------------|
G#|------------------------------------------------------------------------|
E |------------------------------------------------------14-12-10-8--10-9--|
B |-0-----------------0-----------------0----------------------------------|
F#|-0-----8---7-8-----0-----8---7-8-----0-----8---7-8----12-10-8--10-8--7--|
B |-0---0---0------0--0---0---0------0--0---0---0------0-------------------|

#|-------------------------------------------------------------------------|
G#|------------------------------------------------------------------------|
E |------10--9-10----------10--9-10----------10--9-10----------10--9-10----|
B |-0-----------------0-----------------10---------------------------------|
F#|-0-----8---7-8-----0-----8---7-8-----10----8---7-8-----8----8---7-8-----|
B |-0---0---0------0--0---0---0------0--10--x---x------x--8--x---x------x--|

C#|------------------------------------------------------|
G#|------------------------------------------------------|
E |------------------------------------------------------|
B |-8--7--5--10--8--7--5--7----10--8--7--8--7--5--3--2---|
F#|------------------------------------------------------|
B |------------------------------------------------------|





Comments


Popular Parkway Drive tabs & chords
Flesh Bone And Weakness Intro Bass Tabs
Idols And Anchors 6 Tabs
Moments In Oblivion Tabs
Pandora 3 Tabs
Picture Perfect Pathetic 1 Tabs
Picture Perfect Pathetic Up To Lifeless Tabs
Sleepwalker 2 Tabs
Sleepwalker 4 Tabs
Sleight Of Hand Tabs
Smoke Em If You Got Em 3 Tabs


Song lyrics



↑ Back to top | Tablatures and chords are parodies/interpretations of the original songs. You may use it for private study, scholarship, research or language learning purposes only
© 2014 AZChords.com Contact us | Privacy policy | DMCA | Add/correct tabs | Request tabs | Top 50 tabs