» » »

Parkway Drive, Don't Close Your Eyes Tabs (ver.1)

Artists:  A B C D E F G H I J K L M N O P Q R S T U V W X Y Z # 

Don't Close Your Eyes Tabs (ver.1)

Parkway Drive Tabs
 Rating:
4/5 (4 votes)
Don't Close Your Eyes lessons Tabs too difficult? Try these video lessons and learn fast
1
                hi i haven't seen any tabs with very much of the song so i'm just adding another part to it

|-------------------------------------------------|   x3
|-------------------------------------------------|
|-------------------------------------------------|
|-------------------------------------------------|
|--00---0h5h8-0h5h8-0h5h8-0h5h8-0h5h8-0h5h7-0h5h7-|
|--00---------------------------------------------|

|-------------------------------------------------|
|-------------------------------------------------|
|-------------------------------------------------|
|-------------------------0h3h7-0h3h7-0h2h6-0h2h6-|
|--00---0h5h8-0h5h8-0h5h8-------------------------|
|--00---------------------------------------------|


|-------------------------------------------------|   x3
|-------------------------------------------------|
|-------------------------------------------------|
|-------------------------------------------------|
|--00---0h5h8-0h5h8-0h5h8-0h5h8-0h5h8-0h5h7-0h5h7-|
|--00---------------------------------------------|

|-------------------------------------------------|
|-------------------------------------------------|
|-------------------------------------------------|
|-------------------------0h3h7-0h3h7-0h2h6-0h2h6-|
|--00---0h5h8-0h5h8-0h5h8-------------------------|
|--00---------------------------------------------|


|-------------------------------------------------|   x3
|-------------------------------------------------|
|-------------------------------------------------|
|-------0h3h7-0h3h7-0h3h7-0h3h7-0h3h7-0h2h6-0h2h6-|
|--00---------------------------------------------|
|--00---------------------------------------------|


|-------------------------------------------------|
|-------------------------------------------------|
|-------------------------------------------------|
|-------0h3h7-0h3h7-0h3h7-0h5h8-0h5h8-0h5h7-0h5h7-|
|--00---------------------------------------------|
|--00---------------------------------------------|


|-------------------------------------------------|
|-------------------------------------------------|
|-------------------------------------------------|
|--7~~~-----8~~~----10~~~-----3~~~----------------|
|--7~~~-----8~~~----10~~~-----3~~~----------------|
|--5~~~-----5~~~-----5~~~-----3~~~----------------|


not sure if this is tapped but it sounds right to me
|-------------------------------------------------|   x3
|-------------------------------------------------|
|--t15p0-t14p0-t12p0-t10p0------------------------|
|-------------------------------------------------|
|-------------------------------------------------|
|-------------------------------------------------|
i use my right hand for the 15s and 14s and left hand for the rest
|-------------------------------------------------|
|-------------------------------------------------|
|--t14p0-t12p0-t10p0-t9p0-------------------------|
|-------------------------------------------------|
|-------------------------------------------------|
|-------------------------------------------------|
repeat this section x4

|-------------------------------------------------------------------|   x6
|-------------------------------------------------------------------|
|-------------------------------------------------------------------|
|-----7p5-8p5-7p5----7p5-8p5-7p5-----7p5-8p5-7p5-----5p3-8p5-7p5----|
|-------------------------------------------------------------------|
|--55-------------55--------------55--------------33----------------|


|-------------------------------------------------------------------|   x4
|-------------------------------------------------------------------|
|-------------------------------------------------------------------|
|-----7-8-7~---------8-10-8~---------10-12-10~---10-8-7----8-7------|
|-------------------------------------------------------10-----10-8~|
|--55-------------77--------------88--------------------------------|


|-------------------------------------------------------------------|
|-------------------------------------------------------------------|
|-----------------------------------------------88881010101088887777|
|------5p0-7p0-8p0-7p0-5p0-8p0-10p0-8p0-10p0-12---------------------|
|--00---------------------------------------------------------------|
|--00---------------------------------------------------------------|

|-------------------------------------------------------------------|
|-------------------------------------------------------------------|
|-------------------------------------------------------------------|
|------5p0-7p0-8p0-7p0-5p0-8p0-10p0-8p0-10p0-12--7777555588887777---|
|--00---------------------------------------------------------------|
|--00---------------------------------------------------------------|   x2

|-------------------------------------------------------------------|
|-------------------------------------------------------------------|
|------------------------------------------------10-8-7----8-7------|
|-----7-8-7~---------8-10-8~---------10-12-10~----------10-----10-8~|
|-------------------------------------------------------------------|
|--55-------------77--------------88--------------------------------|

|-------------------------------------------------------------------|
|-------------------------------------------------------------------|
|------------------------------------------------10-8-7----8-7------|
|-----7-8-7~---------8-10-8~---------10-12-10~----------10-----10-8-|
|-------------------------------------------------------------------|
|--55-------------77--------------88--------------------------------|


|------------------------------|
|------------------------------|
|--10-8-7----8-7---------------|
|---------10-----10-8----------|
|---------------------0~~~~~---|
|---------------------0~~~~~---|

that is all i know any corrections please comment.

rate if you liked it!!!
            
Submit corrections

comments powered by Disqus
↑ Back to top | Parkway Drive Tabs for Don't Close Your Eyes. Lyrics for acoustic guitar and electric guitar. 1 Tablatures and chords are parodies/interpretations of the original songs. You may use it for private study, scholarship, research or language learning purposes only