>
 >
Cruise Intro

Cruise Intro Guitar Tabs

Parkway Drive - Cruise Intro chords, tabs, tablatures, lyrics

Guitar lessons | Add/correct | Request | Top 50 tabs Artists:  A B C D E F G H I J K L M N O P Q R S T U V W X Y Z 0-9

Cruise Intro Guitar Tabs – Parkway Drive

CD, Sheet music, Poster

Do you like Cruise Intro? Share with your friends now
Tabs
                                                                    Sabian Lynch



      E  E  E  E  E  E  E  E     E  E  E  E  E  E  E  E   
C#||--------------------------|--------------------------|
G#||--------------------------|--------------------------|
E ||--------------------------|--------------------------|
B ||--------7-----7-----------|--7-----7-----------------|
F#||-----5-----------5-----7--|-----------7-----7-----3--|
B ||--5--------5--------7-----|-----7--------7-----3-----|


  E  E  E  E  E  E  E  E     E  E  E   E   E  E  E  E   
--------------------------|----------------------------|
--------------------------|----------------------------|
--------------------------|----------------------------|
--7-----7-----------7-----|--8-----7h--8p--7-----7-----|
-----------3-----5--------|-------------------------5--|
-----3--------5--------5--|-----5-------------5--------|


  E  E  E  E  E  E  E  E     E  E  E  E  E  E  E  E     Q    Q    Q    E  E   
--------------------------|--------------------------|-----------------------|
--------------------------|--------------------------|-----------------------|
--------------------------|--------------------------|-----------------------|
--------7-----7-----------|--7-----7--------7--------|------------7----------|
-----5-----------5-----7--|-----------7-----------7--|-------3------------3--|
--5--------5--------7-----|-----7--------7-----7-----|--3--------------3-----|


  Q    E  E  Q    Q       E  E  E  E  E  E  E  E     E  E  E  E  E  E  E  E   
-----------------------|--------------------------|--------------------------|
-----------------------|--------------------------|--------------------------|
-----------------------|--------------------------|--------------------------|
--5----------2---------|--------7-----7-----------|--7-----7-----------------|
----------3-------3----|-----5-----------5-----7--|-----------7-----7-----3--|
-------3---------------|--5--------5--------7-----|-----7--------7-----3-----|


  E  E  E  E  E  E  E  E     E  E  E   E   E  E  E  E   
--------------------------|----------------------------|
--------------------------|----------------------------|
--------------------------|----------------------------|
--7-----7-----------7-----|--8-----7h--8p--7-----7-----|
-----------3-----5--------|-------------------------5--|
-----3--------5--------5--|-----5-------------5--------|


  E  E  E  E  E  E  E  E     E  E  E  E  E  E  E  E     Q    Q    Q    E  E   
--------------------------|--------------------------|-----------------------|
--------------------------|--------------------------|-----------------------|
--------------------------|--------------------------|-----------------------|
--------7-----7-----------|--7-----7--------7--------|------------7----------|
-----5-----------5-----7--|-----------7-----------7--|-------3------------3--|
--5--------5--------7-----|-----7--------7-----7-----|--3--------------3-----|


                          PM   PM   PM   PM      PM   PM   PM   PM    
  Q    E  E  Q    Q       Q    Q    Q    Q       Q    Q    Q    Q     
-----------------------|----------------------|----------------------|
-----------------------|----------------------|----------------------|
-----------------------|----------------------|----------------------|
--5----------2---------|------------7---------|-------7---------7----|
----------3-------3----|-------5--------------|--7-------------------|
-------3---------------|--5--------------7----|------------7---------|


  PM   PM   PM   PM      PM   PM   PM PM PM      PM   PM   PM   PM    
  Q    Q    Q    Q       Q    Q    E  E  Q       Q    Q    Q    Q     
----------------------|-----------------------|----------------------|
----------------------|-----------------------|----------------------|
----------------------|-----------------------|----------------------|
------------7---------|-------8----7--8--7----|------------7---------|
-------3--------------|--5--------------------|-------5--------------|
--3--------------5----|-----------------------|--5--------------7----|


  PM   PM   PM   PM      PM   PM   PM   PM      PM   PM   PM   PM    
  Q    Q    Q    Q       Q    Q    Q    Q       Q    Q    Q    Q     
----------------------|----------------------|----------------------|
----------------------|----------------------|----------------------|
----------------------|----------------------|----------------------|
-------7---------7----|------------7---------|--5---------2---------|
--7-------------------|-------3--------------|-----------------3----|
------------7---------|--3--------------3----|-------3--------------|


  PM   PM   PM   PM      PM   PM   PM   PM      PM   PM   PM   PM    
  Q    Q    Q    Q       Q    Q    Q    Q       Q    Q    Q    Q     
----------------------|----------------------|----------------------|
----------------------|----------------------|----------------------|
----------------------|----------------------|----------------------|
------------7---------|-------7---------7----|------------7---------|
-------5--------------|--7-------------------|-------3--------------|
--5--------------7----|------------7---------|--3--------------5----|


  PM   PM   PM PM PM      PM   PM   PM   PM      PM   PM   PM   PM    
  Q    Q    E  E  Q       Q    Q    Q    Q       Q    Q    Q    Q     
-----------------------|----------------------|----------------------|
-----------------------|----------------------|----------------------|
-----------------------|----------------------|----------------------|
-------8----7--8--7----|------------7---------|-------7---------7----|
--5--------------------|-------5--------------|--7-------------------|
-----------------------|--5--------------7----|------------7---------|


  PM   PM   PM   PM      PM   PM   PM   PM     
  Q    Q    Q    Q       Q    Q    Q    Q      
----------------------|----------------------||
----------------------|----------------------||
----------------------|----------------------||
------------7---------|--5---------2---------||
-------3--------------|-----------------3----||
--3--------------3----|-------3--------------||




Duration Legend
---------------
W - whole
H - half
Q - quarter
E - 8th
S - 16th
T - 32nd
X - 64th
. - note dotted
|-n-|  - n-tuplets


Tablature Legend
----------------
L - tied note
x - dead note
g - grace note
(n) - ghost note
> - accentuded note
NH - natural harmonic
AH - artificial harmonic
TH - tapped harmonic
SH - semi harmonic
PH - pitch harmonic
h - hammer on
p - pull off
b - bend
br - bendRelease
pb - preBend
pbr - preBendRelease
brb - bendReleaseBend
\n/ - tremolo bar dip
\n - tremolo bar dive
-/n - tremolo bar Release up
/n\ - tremolo bar inverted dip
/n - tremolo bar return
-\n - tremolo bar Release down
S - shift slide
s - legato slide
/ -  slide into from below or out of upwards
\ -  slide into from above or out of downwards
~ - vibrato
W - wide vibrato
tr - trill
TP - tremolo picking
T - tapping
S - slap
P - pop
< - fade in
^ - brush up
v - brush down





Comments


Popular Parkway Drive tabs & chords
Carrion 1 Bass Tabs
Alone Intro Tabs
Flesh Bone And Weakness Intro 1 Tabs
Gimme A D Tabs
Idols And Anchors 3 Tabs
Idols And Anchors Intro Tabs
Karma 1 Tabs
Sleight Of Hand Tabs
The Slow Surrender Tabs
Wreckage 3 Tabs


Song lyrics



↑ Back to top | Tablatures and chords are parodies/interpretations of the original songs. You may use it for private study, scholarship, research or language learning purposes only
© 2014 AZChords.com Contact us | Privacy policy | DMCA | Add/correct tabs | Request tabs | Top 50 tabs