» » »

Parkway Drive, Breaking Point Tabs (ver.1)

Artists:  A B C D E F G H I J K L M N O P Q R S T U V W X Y Z # 

Breaking Point Tabs (ver.1)

Parkway Drive Tabs
 Rating:
4/5 (7 votes)
Breaking Point lessons Tabs too difficult? Try these video lessons and learn fast
                (Intro)
-------------------------------------------------------------------------------
                         Breaking Point - Parkway Drive
-------------------------------------------------------------------------------

Tuning: Drop B

Intro:
|-5-0000-7-0000-8-0000-7-0000-5-0000-7-0000-8-0000-7-0000-10-0000-8-0000----|
|---------------------------------------------------------------------------|
|---------------------------------------------------------------------------|
|---------------------------------------------------------------------------|
|---------------------------------------------------------------------------|
|---------------------------------------------------------------------------|

|-7-0000-5-0000-12-0000-10-0000-8-0000-7-0000--5-0000-7-0000-8-0000-7-0000--|
|---------------------------------------------------------------------------|
|---------------------------------------------------------------------------|
|---------------------------------------------------------------------------|
|---------------------------------------------------------------------------|
|---------------------------------------------------------------------------|

|-5-0000-7-0000-8-0000-7-0000-----------------------------------------------|
|-----------------------------5-0000-/7-0000-/8-/10/-/12~-------------------|
|---------------------------------------------------------------------------|
|---------------------------------------------------------------------------|
|---------------------------------------------------------------------------|
|---------------------------------------------------------------------------|
                                ****    ****

|-7p3h7p3h7p3h7p3h7p3h7p3h7p3h7p3-5p2h5p2h5p2h5p2---------------------------|
|-------------------------------------------------5p0h5p0h5p0h5p------------|
|---------------------------------------------------------------------------|
|---------------------------------------------------------------------------|
|---------------------------------------------------------------------------|
|---------------------------------------------------------------------------|

|-7p3h7p3h7p3h7p3h7p3h7p3h7p3h7p3-9p5h9p5h9p5h9p5-9^------------------------|
|----------------------------------------------------7^p6p0----7^p6p0-------|
|---------------------------------------------------------------------------|
|---------------------------------------------------------------------------|
|---------------------------------------------------------------------------|
|---------------------------------------------------------------------------|

|--------------------------191715-0000-191715-0000-191715-0000-191715-0000--|
|----7^p6p0----7^p6p0-------------------------------------------------------|
|---------------------7*~---------------------------------------------------|
|---------------------------------------------------------------------------|
|---------------------------------------------------------------------------|
|---------------------------------------------------------------------------|

|-191715-171514-151412-171514-151412-131110-151412-131110-------------------|
|---------------------------------------------------------------------------|
|---------------------------------------------------------------------------|
|---------------------------------------------------------------------------|
|---------------------------------------------------------------------------|
|---------------------------------------------------------------------------|



| /  slide up
| \  slide down
| h  hammer-on
| p  pull-off
| ~  vibrato
| +  harmonic
| x  Mute note
===============================================================================
            
Submit corrections

comments powered by Disqus
↑ Back to top | Parkway Drive Tabs for Breaking Point. Lyrics for acoustic guitar and electric guitar. Tablatures and chords are parodies/interpretations of the original songs. You may use it for private study, scholarship, research or language learning purposes only