» » »

Parkway Drive, Anasasis (Xenophontis) Tabs (ver.3)

Artists:  A B C D E F G H I J K L M N O P Q R S T U V W X Y Z # 

Anasasis (Xenophontis) Tabs (ver.3)

Parkway Drive Tabs
Rating:
0/5 (0 votes)
Anasasis (Xenophontis) lessons Tabs too difficult? Try these video lessons and learn fast
                parkway drive = anansasis xenophontis
tuning = drop b

hey this is alex again with another parkway this ones called
anasasis xenophontis i hope u like this is on eof my best

legend

t = tapping
b = bend
p = pulloff
h = hammer on
\ = slide down
/ = slide up
r = release bend

here we are ladies and gentleman


intro
-------------------------------------------------------------|
------------10-----------------------------------------------|
----10-9-10----10-9------------------------------------------|repaet 3 times
-------------------------------------------------------------|
-------------------------------------------------------------|
-------------------------------------------------------------|

continue intro
-------------------------------------------------------------|
-----------10------------------------------------------------|
---10-9-10----10-9-------------------------------------------|
-------------------------------------------------------------|
--------------------0--0-0-0--0--0-0-0--0-0-0-0-0-0----------|
--------------------0--0-0-0--0--0-0-0--0-0-0-0-0-0----------|

-------------------------------------------------------------|
------------------------------------------10-----------------|
----------------------------------10-9-10----10-9------------|
-------------------------------------------------------------|
-0-0-0-0-0-0--0--0-0-0--0--0-0-0-----------------------------|
-0-0-0-0-0-0--0--0-0-0--0--0-0-0-----------------------------|threw intro

verse
-------------------------------------------------------------|
-------------------------------------------------------------|
-------------------------------------------------------------|
-------------------------------------------------------------|
--0--0-0-0--0-0-0--0-0--5-8-10-8-7-8-------------------------|
--0--0-0-0--0-0-0--0-0---------------------------------------|

-------------------------------------------------------------|
-------------------------------------------------------------|
-------------------------------------------------------------|
-------------------------------------------------------------|
--0--0-0-0--0-0-0--0-0--7-8-12-10-8-10-----------------------|
--0--0-0-0--0-0-0--0-0---------------------------------------|

then next part of verse

------------------------------------------------------------------|
------------------------------------------------------------------|
------------------------------------------------------------------|
------------------------------------------------------------------|
-0--0-0-0--5-7-8--0--0-0-0--5-7-8--0--0-0-0--5-7-8-10-8-7-8-7-----|
-0--0-0-0---------0--0-0-0---------0--0-0-0-------------------10--|x2

------------------------------------------------------------------|
------------------------------------------------------------------|
------------------------------------------------------------------|
-----------3-5-7------------3-5-7------------3-5-7-5-3-2-3-2------|
-0--0-0-0---------0--0-0-0---------0--0-0-0------------------3----|
-0--0-0-0---------0--0-0-0---------0--0-0-0-----------------------|x2

then just before verse play this

-------------------------------------------------------------|
-------------------------------------------------------------|
-------------------------------------------------------------|
------7---5---2---0------------------------------------------|
-0--8---7---3---1-----------3-5-0----------------------------|
-0--------------------0-3-7-----0----------------------------|x4

then full hardcore

-------------------------------------------------------------|
-------------------------------------------------------------|
-------------------------------------------------------------|
-------------------------------------------------------------|
-3-7-2-5-0-2-3-5-2-3-5-3-2-0---------------------------------|
-3-7-2-5-0-2-3-5-2-3-5-3-2-0---------------------------------|x4

little pre chorus

-------------------------------------------------------------|
------------------------------------10-----------------------|
----------------------------10-9-10----10-9------------------|
--------let ring---------------------------------------------|
--0--0--0----------------------------------------------------|
--0--0--0----------------------------------------------------|


chorus

-------------------------------------------------------------|
-------------------------------------------------------------|
-------------------------------------------------------------|
-------------------------------------------------------------|
--------------------0--0-0-0--0--0-0-0--0-0-0-0-0-0----------|
--------------------0--0-0-0--0--0-0-0--0-0-0-0-0-0----------|

-------------------------------------------------------------|
------------------------------------------10-----------------|
----------------------------------10-9-10----10-9------------|
-------------------------------------------------------------|
-0-0-0-0-0-0--0--0-0-0--0--0-0-0-----------------------------|
-0-0-0-0-0-0--0--0-0-0--0--0-0-0-----------------------------|x4

then second verse

------------------------------------------------------------------|
------------------------------------------------------------------|
------------------------------------------------------------------|
------------------------------------------------------------------|
-0--0-0-0--5-7-8--0--0-0-0--5-7-8--0--0-0-0--5-7-8-10-8-7-8-7-----|
-0--0-0-0---------0--0-0-0---------0--0-0-0-------------------10--|x2

------------------------------------------------------------------|
------------------------------------------------------------------|
------------------------------------------------------------------|
-----------3-5-7------------3-5-7------------3-5-7-5-3-2-3-2------|
-0--0-0-0---------0--0-0-0---------0--0-0-0------------------3----|
-0--0-0-0---------0--0-0-0---------0--0-0-0-----------------------|x2

then next part

-------------------------------------------------------------|
-------------------------------------------------------------|
-------------------------------------------------------------|
-------------------------------------------------------------|
--0--0-0-0--0-0-0--0-0--5-8-10-8-7-8-------------------------|
--0--0-0-0--0-0-0--0-0---------------------------------------|

-------------------------------------------------------------|
-------------------------------------------------------------|
-------------------------------------------------------------|
-------------------------------------------------------------|
--0--0-0-0--0-0-0--0-0--7-8-12-10-8-10-----------------------|
--0--0-0-0--0-0-0--0-0---------------------------------------|

faster this time


then next part is


------------------------------------------------------------|
------------------------------------------------------------|
------------------------------------------------------------|
----------------------let ring------------------------------|
-0--0-0-0--0-0-0--0-0-0-------------------------------------|
-0--0-0-0--0-0-0--0-0-0-------------------------------------|


------------------------------------------------------------|
------------------------------------------------------------|
------------------------------------------------------------|
------------------------------------------------------------|
-0--0-0-0--0-0-0--0-0-0--(7-8-12-10-8-10)-------------------|
-0--0-0-0--0-0-0--0-0-0-------------------------------------|x2

                         (dont play this)
                         (2nd time)

then solo

-t17p12p10p8--t17p12p10p8---keep-playign-this-x28-fast-as--|
-----------------------------------------------------------|
-----------------------------------------------------------|
-----------------------------------------------------------|
-----------------------------------------------------------|
-----------------------------------------------------------|

after 28 times fast play this

--17h18p17--15-----17-15-----------------------------------|
---------------18--------18-17-17-18-17-15-13-15-13-12-10--|
-----------------------------------------------------------|
-----------------------------------------------------------|
-----------------------------------------------------------|
-----------------------------------------------------------|

then tapping part again


-t17p12p10p8--t17p12p10p8---keep-playign-this-x12-fast-as--|
-----------------------------------------------------------|
-----------------------------------------------------------|
-----------------------------------------------------------|
-----------------------------------------------------------|
-----------------------------------------------------------|

--t18p13-t18p13-t18p13-t18p13-t18p13---t20p15-t20p15-t20p5-t20p15-t20p15--|
--------------------------------------------------------------------------|
--------------------------------------------------------------------------|
--------------------------------------------------------------------------|
--------------------------------------------------------------------------|
--------------------------------------------------------------------------|


again the tapping main part

-t17p12p10p8--t17p12p10p8---keep-playign-this-x12-fast-as--|
-----------------------------------------------------------|
-----------------------------------------------------------|
-----------------------------------------------------------|
-----------------------------------------------------------|
-----------------------------------------------------------|

after the 12 times finish with this fast

--17h18p17--15-----17-15---------------------------------------|
---------------18--------18-17-17-18-17-15-13-15-13-12-10------|
------------------------------------------------------------7--|
---------------------------------------------------------------|
---------------------------------------------------------------|
---------------------------------------------------------------|
            

comments powered by Disqus
↑ Back to top | Parkway Drive Tabs for Anasasis (Xenophontis). Lyrics for acoustic guitar and electric guitar. Tablatures and chords are parodies/interpretations of the original songs. You may use it for private study, scholarship, research or language learning purposes only