» » »

Paranoid Social Club, Two Girls Tabs (ver.1)

Artists:  A B C D E F G H I J K L M N O P Q R S T U V W X Y Z # 

Two Girls Tabs (ver.1)

Paranoid Social Club Tabs
 Rating:
4/5 (5 votes)
Two Girls lessons Tabs too difficult? Try these video lessons and learn fast
                "Two Girls" by: Paranoid Social Club


Tuning: D A D G B e

I saw PSC live and although my last tab was correct in the sounding of the song, it
wasn't exactly how they played it, so I updated my first one to be more correct.
 Here it is, in its entirety.

Note: Guitar 1 and 2 are played together during the verse, they are matched as to which
chords hit at what time on each guitar.

Gtr. 1
e|-------------------------------|
B|-------------------------------|
G|-------------------------------|
D|--6-6-6-6-6-6-6-6-3-3-3-3-6-7--|
A|--6-6-6-6-6-6-6-6-3-3-3-3-6-7--|
D|--6-6-6-6-6-6-6-6-3-3-3-3-6-7--|

Gtr. 1
e|-------------------------------------------------------------|
B|-------------------------------------------------------------|
G|-------------------------------------------------------------|
D|--3--x-3--6--6------x----4--4---3--x-3--6--6------x----4--4--| 
A|--1--x-1--4--4---6--x-6--2--2---1--x-1--4--4---6--x-6--2--2--|
D|-----x-----------6--x-6------------x-----------6--x-6--------|
Gtr. 2                                                           x1.5
e|-----6-------9------4-------7------6-------9------6-------7--|
B|-----6-------9------4-------7------6-------9------6-------7--| 
G|-----7------10------5-------8------7------10------7-------8--|
D|-----8------11------6-------9------8------11------8-------9--|
A|-------------------------------------------------------------|
E|-------------------------------------------------------------|

Gtr. 1
e|-------------------------------|
B|-------------------------------|
G|-------------------------------|
D|--6-6-6-6-6-6-6-6-3-3-3-3-6-7--|
A|--6-6-6-6-6-6-6-6-3-3-3-3-6-7--|
D|--6-6-6-6-6-6-6-6-3-3-3-3-6-7--|

Gtr. 1
e|-------------------------------------------------------------|
B|-------------------------------------------------------------|
G|-------------------------------------------------------------|
D|--3--x-3--6--6------x----4--4---3--x-3--6--6------x----4--4--| 
A|--1--x-1--4--4---6--x-6--2--2---1--x-1--4--4---6--x-6--2--2--|
D|-----x-----------6--x-6------------x-----------6--x-6--------|
Gtr. 2                                                           x4
e|-----6-------9------4-------7------6-------9------6-------7--|
B|-----6-------9------4-------7------6-------9------6-------7--|
G|-----7------10------5-------8------7------10------7-------8--|
D|-----8------11------6-------9------8------11------8-------9--|
A|-------------------------------------------------------------|
E|-------------------------------------------------------------|

Gtr. 2
e|-----6-------9------4-------7------6-------9------6-------7--|
B|-----6-------9------4-------7------6-------9------6-------7--|
G|-----7------10------5-------8------7------10------7-------8--| 
D|-----8------11------6-------9------8------11------8-------9--| x4
A|-------------------------------------------------------------|
E|-------------------------------------------------------------|

Gtr. 1
e|-------------------------------|
B|-------------------------------|
G|-------------------------------|
D|--6-6-6-6-6-6-6-6-3-3-3-3-6-7--|
A|--6-6-6-6-6-6-6-6-3-3-3-3-6-7--|
D|--6-6-6-6-6-6-6-6-3-3-3-3-6-7--|

Gtr. 1
e|-------------------------------------------------------------|
B|-------------------------------------------------------------|
G|-------------------------------------------------------------|
D|--3--x-3--6--6------x----4--4---3--x-3--6--6------x----4--4--| 
A|--1--x-1--4--4---6--x-6--2--2---1--x-1--4--4---6--x-6--2--2--|
D|-----x-----------6--x-6------------x-----------6--x-6--------|
Gtr. 2                                                           x4
e|-----6-------9------4-------7------6-------9------6-------7--|
B|-----6-------9------4-------7------6-------9------6-------7--|
G|-----7------10------5-------8------7------10------7-------8--|
D|-----8------11------6-------9------8------11------8-------9--|
A|-------------------------------------------------------------|
E|-------------------------------------------------------------|

Gtr. 2
e|-----6-------9------4--------------6-------9------6-------7--|
B|-----6-------9------4--------------6-------9------6-------7--|
G|-----7------10------5--------------7------10------7-------8--| 
D|-----8------11------6--------------8------11------8-------9--|
A|-------------------------------------------------------------|
E|-------------------------------------------------------------|

Gtr. 2
e|-----6-------9------4-------7------6-------9------6-------7--|
B|-----6-------9------4-------7------6-------9------6-------7--|
G|-----7------10------5-------8------7------10------7-------8--| 
D|-----8------11------6-------9------8------11------8-------9--| x3
A|-------------------------------------------------------------|
E|-------------------------------------------------------------|

Gtr. 1
e|-------------------------------|
B|-------------------------------|
G|-------------------------------|
D|--6-6-6-6-6-6-6-6-3-3-3-3-6-7--|
A|--6-6-6-6-6-6-6-6-3-3-3-3-6-7--|
D|--6-6-6-6-6-6-6-6-3-3-3-3-6-7--|

Gtr. 1
e|-------------------------------------------------------------|
B|-------------------------------------------------------------|
G|-------------------------------------------------------------|
D|--3--x-3--6--6------x----4--4---3--x-3--6--6------x----4--4--| 
A|--1--x-1--4--4---6--x-6--2--2---1--x-1--4--4---6--x-6--2--2--|
D|-----x-----------6--x-6------------x-----------6--x-6--------|
Gtr. 2                                                           x4
e|-----6-------9------4-------7------6-------9------6-------7--|
B|-----6-------9------4-------7------6-------9------6-------7--|
G|-----7------10------5-------8------7------10------7-------8--|
D|-----8------11------6-------9------8------11------8-------9--|
A|-------------------------------------------------------------|
E|-------------------------------------------------------------|

Gtr. 2
e|-----6-------9------4--------------6-------9------6-------7--|
B|-----6-------9------4--------------6-------9------6-------7--|
G|-----7------10------5--------------7------10------7-------8--| 
D|-----8------11------6--------------8------11------8-------9--|
A|-------------------------------------------------------------|
E|-------------------------------------------------------------|

Gtr. 2
e|-----6-------9------4-------7------6-------9------6-------7--|
B|-----6-------9------4-------7------6-------9------6-------7--|
G|-----7------10------5-------8------7------10------7-------8--| 
D|-----8------11------6-------9------8------11------8-------9--|
A|-------------------------------------------------------------|
E|-------------------------------------------------------------|

Gtr. 1
e|-------------------------------|
B|-------------------------------|
G|-------------------------------|
D|--6-6-6-6-6-6-6-6-3-3-3-3-6-7--|
A|--6-6-6-6-6-6-6-6-3-3-3-3-6-7--|
D|--6-6-6-6-6-6-6-6-3-3-3-3-6-7--|

Gtr. 1
e|-------------------------------------------------------------|
B|-------------------------------------------------------------|
G|-------------------------------------------------------------|
D|--3--x-3--6--6------x----4--4---3--x-3--6--6------x----4--4--| 
A|--1--x-1--4--4---6--x-6--2--2---1--x-1--4--4---6--x-6--2--2--|
D|-----x-----------6--x-6------------x-----------6--x-6--------|
Gtr. 2                                                           x4
e|-----6-------9------4-------7------6-------9------6-------7--|
B|-----6-------9------4-------7------6-------9------6-------7--|
G|-----7------10------5-------8------7------10------7-------8--|
D|-----8------11------6-------9------8------11------8-------9--|
A|-------------------------------------------------------------|
E|-------------------------------------------------------------|

Gtr. 1
e|-------------------------------|
B|-------------------------------|
G|-------------------------------|
D|--6-6-6-6-6-6-6-6-3-3-3-3-6-7--|
A|--6-6-6-6-6-6-6-6-3-3-3-3-6-7--|
D|--6-6-6-6-6-6-6-6-3-3-3-3-6-7--|
            
Submit corrections

comments powered by Disqus
↑ Back to top | Paranoid Social Club Tabs for Two Girls. Lyrics for acoustic guitar and electric guitar. Tablatures and chords are parodies/interpretations of the original songs. You may use it for private study, scholarship, research or language learning purposes only