» » »

Paramore, Monster Tabs (ver.3)

Artists:  A B C D E F G H I J K L M N O P Q R S T U V W X Y Z # 

Monster Tabs (ver.3)

Paramore Tabs
Rating:
0/5 (0 votes)
Monster lessons Tabs too difficult? Try these video lessons and learn fast
                Paramore
Monster
Transformers: Dark of the Moon Soundtrack
Transcribe by: Sade

Rhythm Guitar
intro

e-----------------------------|
B-----------------------------|
G------7-7-7-7-----8-8-8-8--8-|
D--5-------------9----------9-|
A-7--7---------6--6---------6-|
E-----------------------------|

verse

e-------------|
B-------------|
G---0---2-0---|
D-----2-------|
A-------------|
E-0-----------|

pre-chorus

e-------------|
B-------------|
G-------------|
D-22--222-----|
A-22--222-----|
E-00--000-----|

chorus

e-------------------------------|
B-------------------------------|
G-5-----7--------------7--------|
D-5--2--7------(x3)----7-(hold)-|
A-3--2--5--------------5--------|
E----0--------------------------|

solo/bridge

e-----------|
B-----------|
G---7--5----|
D-2-7--5----|
A-2-5--3----|
E-0---------|

Lead Guitar
intro

e-7-7--7-7-7-7----12------------|
B-8-8h10p8h10p8---12------------|
G-9-9--9-9-9-9----11------------|
D-------------------------------|
A-------------------------------|
E-------------------------------|

verse
e-----------12---------12-------------------12---------------|
B---12---12--12--12-10-----10------12---12--12-12---10-------|
G-12--12-----12-------12------11--12--12----12----12---11----|
D------------14-----------------------------14---------------|
A------------------------------------------------------------|
E------------------------------------------------------------|

chorus

e--12--12--12--12------------------------|
B--12--12--12--12------------------------|
G--12--12--12--12--9--12-11---9--11------|
D--14--14--14--14--x--x---x---x--x-------|
A------------------7--10--9---7--9-------|
E----------------------------------------|

guitar 3

e--------------------------------------------------------|
B--------12-12-12-12------------15-15-15-15--------------|
G---12-----------------------12--------------------b12---|
D-14--14----------------14----14-------------------------|
A--------------------------------------------------------|
E--------------------------------------------------------|

solo
e----------------------------------------------------------------------------|
B----------------------------------------------------------------------------|
G-9-9-9-9-----------7-7-7-7---------------------4-4-4------------4-4-4-------|
D-----------9-9-9-9-----------7-7-7-7-5-5-5-5---------5-5-5-5-5--------5-----|
A----------------------------------------------------------------------------|
E----------------------------------------------------------------------------|

e----------------------------------------------------------------------------|
B----------------------------------------------------------------------------|
G-9-9-9-9-----------11-11-11-11------------------11-12-11-12-11-12-11-12-----|
D-----------9-9-9-9------------------12-12-12-12-----------------------------|
A----------------------------------------------------------------------------|
E----------------------------------------------------------------------------|

e------------------------------------------------------|
B------------------------------------------------------|
G-14-14-14-14-12-16--17-16-19-16--9--11-12-------------|
D--------------------x--x--x--x--x--x--x--x------------|
A--------------------15-14-17-14--7--9---10------------|
E------------------------------------------------------|

e-----------------------------|
B-----------------------------|
G-9-11-12--16---9-11-12--19---|
D-x-x--x----x---x-x--x----x---|
A-7-9--10---14--7-9--10---17--|
E-----------------------------|
            
Submit corrections

comments powered by Disqus
↑ Back to top | Paramore Tabs for Monster. Lyrics for acoustic guitar and electric guitar. Tablatures and chords are parodies/interpretations of the original songs. You may use it for private study, scholarship, research or language learning purposes only