» » »

Paramore, Let This Go Tabs (ver.1)

Artists:  A B C D E F G H I J K L M N O P Q R S T U V W X Y Z # 

Let This Go Tabs (ver.1)

Paramore Tabs
Rating:
0/5 (0 votes)
Let This Go lessons Tabs too difficult? Try these video lessons and learn fast
                Paramore
Let this go
All we know is falling

Tuning: flatted Eb-Ab-Db-Gb-Bb-eb on both guitars

Chords used:

Em-    022000
G-     320033
C-     x32010
Am-    x02210
Am7-   x02010
Gsus4- 330033
G/B-   x2x033
Cadd9- x32033


Intro:

Part 1:

Guitar 1:
eb|-------15-------15-|-------17-------17-|-------15-------15-|
Bb|----13-------13----|----13-------13----|----13-------13----|
Gb|-16-------16-------|-16-------16-------|-16-------16-------|
Db|-------------------|-------------------|-------------------| (x2)
Ab|-------------------|-------------------|-------------------|
Eb|-------------------|-------------------|-------------------|

Guitar 2: Chords
Em-G/B-Cadd9 (x2)

Part 2:

Guitar 1:
eb|----10----|----------------------------------------|
Bb|-------13-|----12-13-----12-13-----12-13-----12-13-|
Gb|-12-------|-12--------12--------12--------12-------|
Db|----------|----------------------------------------| (x2)
Ab|----------|----------------------------------------|
Eb|----------|----------------------------------------|

Guitar 2: Chords
C-Am-- (x2)

Verse 1:
C    Am                  C   Am
  Maybe if my heart stops beating
                 Em
it won't hurt this much
   C  Am                C  Am               Em
and never will I have to answer again to anyone
C      Am           C    Am
please don't get me wrong


Chorus:
        G          Gsus4    Cadd9
because I'll never let this go
    Am7              G/B           C
but I can't find the words to tell you
  G             Gsu4     C
I don't want to be------alone
    Am7             G/B          C
but now I feel like I don't know you


Verse 2:
C     Am                    C  Am
  One day you'll get sick of saying
                    Em
that everything's alright
   C   Am                       C   Am
and by then I'm sure I'll be pre-tending
              Em
just like I am tonight
C      Am           C    Am
please don't get me wrong

(Repeat chorus)

Bridge: (Repeat Intro Part 1 pattern)
Em    G/B  Cadd9
  let this go
Em    G/B  Cadd9
  let this go

Solo:

Guitar 1:

eb|-----3-|-------|-----3-|-5-3-3-|-----3-|-------|---------|
Bb|-0-1---|-0-1---|-0-1---|-------|-0-1---|-0-1---|-------0-|
Gb|-------|-----2-|-------|-------|-------|-----2-|-0--2----|
Db|-------|-------|-------|-------|-------|-------|---------| (x2)
Ab|-------|-------|-------|-------|-------|-------|---------|
Eb|-------|-------|-------|-------|-------|-------|---------|

Guitar 2:

Em-G/B-Cadd9--Em-G-Cadd9 (x2)

(Repeat Chorus)

Coda:

    Am7             G/B          C(Hold)
but now I feel like I don't know you
            

comments powered by Disqus
↑ Back to top | Paramore Tabs for Let This Go. Lyrics for acoustic guitar and electric guitar. Tablatures and chords are parodies/interpretations of the original songs. You may use it for private study, scholarship, research or language learning purposes only