>
 >
Crushcrushcrush Live

Crushcrushcrush Live Guitar Tabs

Paramore - Crushcrushcrush Live chords, tabs, tablatures, lyrics

Guitar lessons | Add/correct | Request | Top 50 tabs Artists:  A B C D E F G H I J K L M N O P Q R S T U V W X Y Z 0-9

Crushcrushcrush Live Guitar Tabs – Paramore

CD, Sheet music, Poster

Do you like Crushcrushcrush Live? Share with your friends now
Tabs
pages/Arista-Lucena/226729694026830


Drop C#

INTRO-
GtrI 2x
|-------------------------------------------------------------------5-------|
|-6-5-6----6-5-6-----6-5-6----6-5-6----6-5-6----6-5-6-----6-5-6-------------|
|--------7--------7---------7--------7--------7--------7---------7-5---5-5--|
|---------------------------------------------------------------------------|
|---------------------------------------------------------------------------|
|---------------------------------------------------------------------------|
  * * *  * * * *  *  * * *  * * * *  * * * *  * * * *  *  * * *  *     * *
GtrII
|---------------------------------------------------------------------------|
|---------------------------------------------------------------------------|
|---------------------------------------------------------------------------|
|---------------------------------------------------------------------------|
|-55555555-55555555-55555555-55555555--55555555-55555555-55555555-----------|
|---------------------------------------------------------------------------|
  ******** ******** ******** ********  ******** ******** ********
Verse-
GtrI 2x
|-------------------------------------------------------------------5-------|
|-6-5-6----6-5-6-----6-5-6----6-5-6----6-5-6----6-5-6-----6-5-6-------------|
|--------7--------7---------7--------7--------7--------7---------7-5---5-5--|
|---------------------------------------------------------------------------|
|---------------------------------------------------------------------------|
|---------------------------------------------------------------------------|
  * * *  * * * *  *  * * *  * * * *  * * * *  * * * *  *  * * *  *     * *

GtrII
|---------------------------------------------------------------------------|
|---------------------------------------------------------------------------|
|---------------------------------------------------------------------------|
|---------------------------------------------------------------------------|
|-55555555-88888888-33333333-55555555--55555555-88888888-33333333-----------|
|---------------------------------------------------------------------------|

Ref.1
GtrI
|-------------------------|-----------------------------------------|
|------10~----8~------6~--|-----10~----8~------6~---------10--8~----|
|---7~------5~------7~----|--7~------5~------7~--------7~-----5~----|
|-------------------------|-----------------------------------------|
|-------------------------|-----------------------------------------|
|-------------------------|-----------------------------------------|

|----------------------------------------------------------------|
|----------------------------------------------------------------|
|----------------------------------------------------------------|2x
|----------------------------------------------------------------|
|-1-1-1-1-1-1-1-1-3-3-3-3-3-3-3-3-5-5-5-5-5-5-5-5-5-5-5-5-3333---|
|----------------------------------------------------------------|
  * * * * * * * * * * * * * * * * * * * * * * * * * * * * ****

|----------------------------------------------------------------|
|----------------------------------------------------------------|
|----------------------------------------------------------------|2x
|----------------------------------------------------------------|
|-1-1-1-1-1-1-1-1-3-3-3-3-3-3-3-3-3-3-3-3-3----------------------|
|----------------------------------------------------------------|
  * * * * * * * * * * * * * * * * * * * * *


interlude1

Chorus
Gtr1
|--------------------|-----------------------|
|--------------------|-----------------------|
|--------------------|-----------------------|
|--00----33-----5~---|--88----00----5~-------|
|--00----33-----3~---|--88----00----3~-------|
|--00----33----------|--88----00-------------|

|--------------------|------------------------------|
|--------------------|------------------------------|
|--------------------|------------------------------|
|--00----33-----5~---|--88888888-1010101010---------|
|--00----33-----3~---|--88888888-1010101010-(break)-|
|--00----33----------|--88888888-1010101010---------|

Gtr2
|--------------------|-----------------------|
|--------------------|-----------------------|
|--77---1010----12~--|--1212---1010---12~----|
|--xx---x-x-----x----|--x-x----x-x----x------|
|--55---8-8-----10~--|--8-8----1212---10~----|
|--00-----------10~--|--8-8----0-0-----------|

|--------------------|------------------------------|
|--------------------|------------------------------|
|--77---1010--12~----|--1010101010101010-1212121212-|
|--xx---x-x---x------|--x-x-x-x-x-x-x-x--x-x-x-x-x--|
|--55---8-8---10~----|--8-8-8-8-8-8-8-8--1010101010-|
|--00---------10~----|--8-8-8-8-8-8-8-8--1010101010-|

interlude2
G1
|---------------------------------|-------------------------------------|
|-10-12-10------------------------|-10-12-10-----------------------15~--|
|---------12-10-9-10-9------------|---------12-10-9-10-9----------------|
|---------------------12-10-10-10-|----------------------12-10----------|
|---------------------------------|-------------------------------------|
|---------------------------------|-------------------------------------|

G2

|---------------------------------|-------------------------------------|
|---------------------------------|-------------------------------------|
|---------------------------------|-------------------------6666--------|
|-----0--0--0---10-10-10-10-10----|-0--0--0-----10-10-10----7777--------|
|-----0--0--0---10-10-10-10-10----|-0--0--0-----10-10-10----4444--------|
|-----0--0--0---10-10-10-10-10----|-0--0--0-----10-10-10----------------|

repeat verse,

ref1

GtrI & II
|-----1~----3~------5~----|--1~----3~------5~------------|
|-----1~----3~------6~----|--1~----3~------6~------------|
|-----3~----5~------7~----|--3~----5~------7~------------|
|-----3~----5~------7~----|--3~----5~------7~------------|
|-----1~----3~------5~----|--1~----3~------5~------------|
|-------------------------|------------------------------|


interlude1
G1
|----12-13-12--------13--12-----------------|
|------------13-----------------------------|
|---------------12--------------------------|
|-------------------------------------------|
|-------------------------------------------|
|-------------------------------------------|

G2
|-------------------------------------------|
|-------------------------------------------|
|-------------------------------------------|
|----88---888----877-77---------------------|
|----88---888----877-77-----(BREAK)---------|
|----88---888----877-77---------------------|


Do chorus-


Bridge.
GtrII
|----------------------------------------------------|
|----------------------------------------------------|
|----------------------------------------------------|
|--0---3---5---88/---0---3---5----88/----------------|4x
|--0---3---3---88/---0---3---3----88/----------------|
|--0---3-------88/---0---3--------88/----------------|

enters at pt3
GtrI
|-131313-121212-101010-101010101010-|
|-101010-101010-101010-101010101010-|3x
|-----------------------------------|
|-----------------------------------|
|-----------------------------------|
|-----------------------------------|



do Chorus-

Chorus2
Gtr1
|--------------------|-----------------------|
|--------------------|-----------------------|
|--------------------|----------------xx6666-|
|-000-333-5555555555-|-888-000-55555--xx7777-|
|-000-333-3333333333-|-888-000-33333--xx4444-|
|-000-333------------|-888-000---------------|

|--------------------|------------------------------|
|--------------------|------------------------------|
|--------------------|------------------------------|
|--00----33-----5~---|--88888888-1010101010---------|
|--00----33-----3~---|--88888888-1010101010---------|
|--00----33----------|--88888888-1010101010---------|

GtrII do chorus

Repeat chorus-

OUTRO-
Gtri

|-12^(13)-12~--12^(13)-12~----10-12~-12^(13)-12~--10-10~-------|
|--------------------------------------------------------------|
|--------------------------------------------------------------|
|--------------------------------------------------------------|
|--------------------------------------------------------------|
|--------------------------------------------------------------|

|--------------------------------------------------------------|
|---------------------------------10----10-13-15~-s------------|
|----------------------10-9-10-12----12------------------------|
|-8-7-8-7--12-10-12-10-----------------------------------------| 
|--------------------------------------------------------------|
|--------------------------------------------------------------| 

GtrII
|--------------------------------------------------------------|
|--------------------------------------------------------------|
|--77777777-66666666-55555555-44444444-3333333-55555666---7/---|
|--77777777-77777777-55555555-55555555-3333333-55555777---7/---|END
|--55555555-44444444-33333333-22222222-1111111-33333444---0/---|
|---------------------------------------------------------0/---|





Comments


Popular Paramore tabs & chords
Crushcrushcrush 8 Bass Tabs
Franklin 2 Bass Tabs
When It Rains Bass Tabs
Careful 1 Chords
Decode 3 Tabs
Emergency 6 Tabs
Feeling Sorry Tabs
In The Mourning 1 Tabs
When It Rains 5 Tabs
Where The Lines Overlap 1 Tabs


Song lyrics



↑ Back to top | Tablatures and chords are parodies/interpretations of the original songs. You may use it for private study, scholarship, research or language learning purposes only
© 2014 AZChords.com Contact us | Privacy policy | DMCA | Add/correct tabs | Request tabs | Top 50 tabs