» » »

Crushcrushcrush Tabs

Artists:  A B C D E F G H I J K L M N O P Q R S T U V W X Y Z # 

Crushcrushcrush Tabs

(ver. 1)
Paramore Tabs
 Rating:
4/5 (4 votes)
    Crushcrushcrush lessons Tabs too difficult? Try these video lessons and learn fast
                 tab2
GUITAR1-drop c#
GUITAR2-dropc#

INTRO-

|-------------|
|-------------|
|---6-6-6-----|
|---7-7-7-----|
|---4-4-4-----|
|-------------|

VERSE-

Guitar1

|-------------------------------------------|
|-------------------------------------------|
|-------------------------------------------|
|--77777777-10101010-55555555-77777777------|
|--55555555-88888888-33333333-55555555------|
|-------------------------------------------|
   ******** ******** ******** ********
|-------------------------------------------|
|-------------------------------------------|
|-------------------------------------------|
|--77777777-10101010-555555555555-----------|
|--55555555-88888888-333333333333-----------|
|-------------------------------------------|
   ******** ******** ************
Guitar2

|---------------------------------------------|
|---------------------------------------------|
|-77-99-77-99--77-99--77-99--77-99------------|
|---------------------------------------------|
|---------------------------------------------|
|---------------------------------------------|
  ** ** ** **  ** **  ** **  ** **

Ref.1


Guitar2
|-------------------------|------------------------------|
|-----3~----5~------6~----|--3~----5~------6~------------|
|-----3~----5~------7~----|--3~----5~------7~------------|
|-----3~----5~------7~----|--3~----5~------7~------------|
|-----1~----3~------5~----|--1~----3~------5~------------|
|-------------------------|------------------------------|

interlude1
G1
|-------------------------------------------|
|-------------------------------------------|
|-------------------------------------------|
|----88---888----877-77---------------------|
|----88---888----877-77-----(BREAK)---------|
|----88---888----877-77---------------------|

G2
|----12-13-12--------13--12-----------------|
|------------13-----------------------------|
|---------------12--------------------------|
|-------------------------------------------|
|-------------------------------------------|
|-------------------------------------------|

REFRAIN2
     crush...............crush...



Gtr1
|-------------------------------------------|
|-------------------------------------------|
|-------------------------------------------|
|-----0~-----------------0~-----------------|
|-----0~-----------------0~-----------------|
|-----0~-----------------0~-----------------|

Gtr2
|-------------------------------------------|
|-------------------------------------------|
|------7~-----------------7~----------------|
|------7~-----------------7~----------------|
|------0~-----------------0~----------------|
|------0~-----------------0~----------------|

Chorus
Gtr1
|--------------------|-----------------------|
|--------------------|-----------------------|
|--------------------|-----------------------|
|--00----33-----5~---|--88----00----5~-------|
|--00----33-----3~---|--88----00----3~-------|
|--00----33----------|--88----00-------------|

|--------------------|------------------------------|
|--------------------|------------------------------|
|--------------------|------------------------------|
|--00----33-----5~---|--88888888-1010101010---------|
|--00----33-----3~---|--88888888-1010101010-(break)-|
|--00----33----------|--88888888-1010101010---------|

Gtr2
|--------------------|-----------------------|
|--------------------|-----------------------|
|--------------------|-----------------------|
|--77----33-----5~---|--88----77----5~-------|
|--55----33-----3~---|--88----55----3~-------|
|--------33----------|--88-------------------|

|--------------------|------------------------------|
|--------------------|------------------------------|
|--------------------|------------------------------|
|--77----33-----5~---|--88888888-1010101010---------|
|--55----33-----3~---|--88888888-1010101010-(break)-|
|--------33----------|--88888888-1010101010---------|

interlude2
G1
|---------------------------------|-------------------------------------|
|---------------------------------|-------------------------------------|
|---------------------------------|-------------------------6666--------|
|-----0--0--0---10-10-10-10-10----|-0--0--0-----10-10-10----7777--------|
|-----0--0--0---10-10-10-10-10----|-0--0--0-----10-10-10----4444--------|
|-----0--0--0---10-10-10-10-10----|-0--0--0-----10-10-10----------------|

G2
|---------------------------------|-------------------------------------|
|---------------------------------|-------------------------------------|
|---------------------------------|-------------------------------------|
|-----7-8-7-----------------------|7-8-7---------------------12~--------|
|-----------10-8---7-8-7----------|-------10-8---7-8-7------------------|
|-----------------------10-8--8-8-|---------------------10-8------------|

or
G2
|---------------------------------|-------------------------------------|
|-10-12-10------------------------|-10-12-10-----------------------15~--|
|---------12-10-9-10-9------------|---------12-10-9-10-9----------------|
|---------------------12-10-10-10-|----------------------12-10----------|
|---------------------------------|-------------------------------------|
|---------------------------------|-------------------------------------|

repeat verse,ref1,interlude1,ref2,do chorus,


Bridge.
G1
|----------------------------------------------------|
|----------------------------------------------------|
|----------------------------------------------------|
|--0---3---5---33/---0---3---5----33/----------------|4x
|--0---3---3---11/---0---3---3----11/----------------|
|--0---3-------------0---3---------------------------|

enters at pt3
Guitar2
|-131313-121212-101010-101010101010-|
|-101010-101010-101010-101010101010-|3x
|-----------------------------------|
|-----------------------------------|
|-----------------------------------|
|-----------------------------------|



do Chorus-

Chorus2
Gtr1
|--------------------|-----------------------|
|--------------------|-----------------------|
|--------------------|------------------6666-|
|--00----33-----5~---|--88----00----5~-x7777-|
|--00----33-----3~---|--88----00----3~-x4444-|
|--00----33----------|--88----00-------------|

|--------------------|------------------------------|
|--------------------|------------------------------|
|--------------------|------------------------------|
|--00----33-----5~---|--88888888-1010101010---------|
|--00----33-----3~---|--88888888-1010101010---------|
|--00----33----------|--88888888-1010101010---------|

Gtr2
|--------------------|-----------------------|
|--------------------|-----------------------|
|--------------------|-----------------------|
|--77----33-----5~---|--88----77----5~--6666-|
|--55----33-----3~---|--88----55----3~--4444-|
|--------33----------|--88-------------------|

|--------------------|------------------------------|
|--------------------|------------------------------|
|--------------------|------------------------------|
|--77----33-----5~---|--88888888-1010101010---------|
|--55----33-----3~---|--88888888-1010101010-------)-|
|--------33----------|--88888888-1010101010---------|


OUTRO-
GUITAR1
|--------------------------------------------------------------|
|--------------------------------------------------------------|
|--77777777-66666666-55555555-44444444-3333333-55555666---7----|
|--77777777-77777777-55555555-55555555-3333333-55555777---7----|END
|--55555555-44444444-33333333-22222222-1111111-33333444---5----|
|--------------------------------------------------------------|

Guitar2-not sure

|-12^(13)-12~--12^(13)-12~----10-12~-12^(13)-12~--10-10~-------|
|--------------------------------------------------------------|
|--------------------------------------------------------------|
|--------------------------------------------------------------|
|--------------------------------------------------------------|
|--------------------------------------------------------------|

|-13----------10----13-12---13-15-13-15--17-18-17-18--22~-s----|
|----10-11-10----13--------------------------------------------| 
|--------------------------------------------------------------|
|--------------------------------------------------------------| 
|--------------------------------------------------------------|
|--------------------------------------------------------------|  
            
Submit corrections

↑ Back to top | Paramore Tabs for Crushcrushcrush. Lyrics for acoustic guitar and electric guitar. Tablatures and chords are parodies/interpretations of the original songs. You may use it for private study, scholarship, research or language learning purposes only