» » »

Paramore, Brighter Tabs (ver.1)

Artists:  A B C D E F G H I J K L M N O P Q R S T U V W X Y Z # 

Brighter Tabs (ver.1)

Paramore Tabs
Rating:
0/5 (0 votes)
Brighter lessons Tabs too difficult? Try these video lessons and learn fast
                Paramore
BRIGHTER
All We Know is Falling
2005 Fueled by Rammen Records

Tuning: Standard EADGBe on all guitars

Players:
Jason: Guitar 1(Rhythm)
Josh: Guitar 2(Lead)
Hayley: Guitar 3(Rhythm)

Intro:

Part 1:

Jason:
e|-------------------------|
B|-------------------------|
G|-------------------------|
D|-6h7p6-6-6h7p6-----------| (x2)
A|----------------4h5p4h5--|
E|-------------------------|

Josh:
e|------------------|
B|------------------|
G|-x-x-x-9--x-x-9---|
D|-x-x-x-9--x-x-9---| (x2)
A|-x-x-x-7--x-x-7---|
E|------------------|

Hayley: Idle

Part 2: at time 0:05

Jason:
      x2 this part            at time 0:013 this part
e|-------------------------|-----5---7---9----5-5-x--4--|
B|-------------------------|-2-3---3---5---5------x-----|
G|-------------------------|----------------------x-----|
D|-6h7p6-6-6h7p6-----------|----------------------x-----|
A|----------------4h5p4h5--|----------------------x-----|
E|-------------------------|----------------------x-----|

Josh:
     x2 this part        at time 0:013 this part
e|-----------------|----------------------|
B|-----------------|----------------------|
G|-x-x-9-9--x-9-9--|-7-7-7-7---9-x-x-9-9--|
D|-x-x-9-9--x-9-9--|-7-7-7-7---9-x-x-9-9--|
A|-x-x-7-7--x-7-7--|-5-5-5-5---7-x-x-7-7--|
E|-----------------|----------------------|

Hayley:
Chords A-F#m-D-E
e|-0-0-0--2-2-2--2-2-2--0-0-0-x--0--|
B|-2-2-2--2-2-2--3-3-3--0-0-0-x--0--|
G|-2-2-2--2-2-2--2-2-2--1-1-1-x--1--|
D|-2-2-2--4-4-4--0-0-0--2-2-2-x--2--|
A|-0-0-0--4-4-4--x-x-x--2-2-2-x--2--|
E|-x-x-x--2-2-2--x-x-x--0-0-0-x--0--|


Verses:

(So This is how it goes.../well I, I would have never known.)

Jason:
   x2 this part
e|-------5--------|-------5---7---5-------7---5------|
B|---5------5---5-|---5---------------5-----------5--|
G|----------------|----------------------------------|
D|-7---7------7---|-7---7---7---7---7---7---7---7----|
A|----------------|----------------------------------|
E|----------------|----------------------------------|

Josh: Idle

Hayley:
Chords F#m-E-D (x2)
e|-2-2-2--0-0-0--2-2--|
B|-2-2-2--0-0-0--3-3--|
G|-2-2-2--1-1-1--2-2--|
D|-4-4-4--2-2-2--0-0--|
A|-4-4-4--2-2-2--x-x--|
E|-2-2-2--0-0-0--x-x--|

(and if it ends today/we'll I still say that you...)

Jason:
   x2 this part
e|-------5--------|-------5---7---5-------7---5------|
B|---5------5---5-|---5---------------5-----------5--|
G|----------------|----------------------------------|
D|-7---7------7---|-7---7---7---7---7---7---7---7----|
A|----------------|----------------------------------|
E|----------------|----------------------------------|

Josh: x2
e|----------------------------|
B|----------------0-----------|
G|-------2-----------------2--|
D|---2--------2--------2------|
A|-------------------5---5----|
E|-2---2----0---0-------------|

Hayley:
Chords F#m-E-D-----F#m-E/G-------------------|D
e|-2-2-2--0-0-0--2-2---2-2-2--x-x-x--2-2-2---|
B|-2-2-2--0-0-0--3-3---2-2-2--5-5-5--3-3-3---|
G|-2-2-2--1-1-1--2-2---2-2-2--4-4-4--2-2-2---|
D|-4-4-4--2-2-2--0-0---4-4-4--x-x-x--0-0-0---|
A|-4-4-4--2-2-2--x-x---4-4-4--x-x-x--x-x-x---|
E|-2-2-2--0-0-0--x-x---2-2-2--4-4-4--x-x-x---|


Chorus: Same as Intro Part 2 then repeat it twice

Interlude:

Jason: (x2)
Chords F#5-E5-D5----------------------|D5 slide to E5
e|------------------------------------|
B|------------------------------------|
G|-11-x-11--9-x-9--7-x-7--7-x-7-7/9---|
D|-11-x-11--9-x-9--7-x-7--7-x-7-7/9---|
A|--9-x--9--7-x-7--5-x-5--5-x-5-5/7---|
E|------------------------------------|

Josh: Solo
e|----------------17~-----------------------|
B|-12/14---------------12/14----------------|
G|-------14-13-14------------14-13----------|
D|---------------------------------16~--14--|
A|------------------------------------------|
E|------------------------------------------|

e|----------------17~--17-16----------------|
B|-12/14---------------------19-14-15-17~---|
G|-------14-13-14---------------------------|
D|------------------------------------------|
A|------------------------------------------|
E|------------------------------------------|

Hayley: (x2)
Chords F#m-E-D--D E
e|-2-x-2--0-x-0--2-x-2--2-x-2-0--|
B|-2-x-2--0-x-0--3-x-3--3-x-3-0--|
G|-2-x-2--1-x-1--2-x-2--2-x-2-1--|
D|-4-x-4--2-x-2--0-x-0--0-x-0-2--|
A|-4-x-4--2-x-2--x-x-x--x-x-x-2--|
E|-2-x-2--0-x-0--x-x-x--x-x-x-0--|

Bridge:(If you run away now will you come back around?)

Jason: Same as Interlude

Hayley:
Chords F#m-E-D-----F#m-E/G-------------------|D
e|-2-2-2--0-0-0--2-2---2-2-2--x-x-x--2-2-2---|
B|-2-2-2--0-0-0--3-3---2-2-2--5-5-5--3-3-3---|
G|-2-2-2--1-1-1--2-2---2-2-2--4-4-4--2-2-2---|
D|-4-4-4--2-2-2--0-0---4-4-4--x-x-x--0-0-0---|
A|-4-4-4--2-2-2--x-x---4-4-4--x-x-x--x-x-x---|
E|-2-2-2--0-0-0--x-x---2-2-2--4-4-4--x-x-x---|

Josh:
e|----------------12------12----------------|
B|-----------9-10----9-10-------------------|
G|-11-11-11---------------------------------|
D|-11-11-11-------------------12-12-12/14---|
A|--9--9--9-------------------12-12-12/14---|
E|----------------------------10-10-10/12---|

e|-5~----12~-----2~--|
B|---------------3~--|
G|---------------2~--|
D|---------------0---|
A|-------------------|
E|-------------------|

(And If you ran away I still wave goodbye...)

Jason:
   x2 this part
e|-------5--------|-------5---7---5-------7---5------|
B|---5------5---5-|---5---------------5-----------5--|
G|----------------|----------------------------------|
D|-7---7------7---|-7---7---7---7---7---7---7---7----|
A|----------------|----------------------------------|
E|----------------|----------------------------------|

Josh: x2
e|---------------------------|------------------5~---|
B|----------------0----------|---------------0--5~---|
G|-------2-----------------2-|-------2----------6~---|
D|---2--------2--------2-----|---2--------2-----7~---|
A|-------------------5---5---|------------------7~---|
E|-2---2----0---0------------|-2---2----4---4---5~---|

Hayley:
Chords F#m-E-D-----F#m-E/G-------------------|D
e|-2-2-2--0-0-0--2-2---2-2-2--x-x-x--2-2-2---|
B|-2-2-2--0-0-0--3-3---2-2-2--5-5-5--3-3-3---|
G|-2-2-2--1-1-1--2-2---2-2-2--4-4-4--2-2-2---|
D|-4-4-4--2-2-2--0-0---4-4-4--x-x-x--0-0-0---|
A|-4-4-4--2-2-2--x-x---4-4-4--x-x-x--x-x-x---|
E|-2-2-2--0-0-0--x-x---2-2-2--4-4-4--x-x-x---|

Outro:

Part 1: Repeat Interlude:

Part 2: (and I'll wave goodbye watching you shine bright...)

Jason: Same as Interlude

Hayley:
Chords F#m-E-D-----F#m-E/G-------------------|D
e|-2-2-2--0-0-0--2-2---2-2-2--x-x-x--2-2-2---|
B|-2-2-2--0-0-0--3-3---2-2-2--5-5-5--3-3-3---|
G|-2-2-2--1-1-1--2-2---2-2-2--4-4-4--2-2-2---|
D|-4-4-4--2-2-2--0-0---4-4-4--x-x-x--0-0-0---|
A|-4-4-4--2-2-2--x-x---4-4-4--x-x-x--x-x-x---|
E|-2-2-2--0-0-0--x-x---2-2-2--4-4-4--x-x-x---|

Josh:
  x9 this part                      x5 this part
e|------12----|------------------|------12------|------|
B|-9-10-------|------------------|-9-10---------|------|
G|------------|-9----------------|--------------|------|
D|------------|---11-------------|--------------|-7~---|
A|------------|------12-12h14p12~|--------------|-5~---|
E|------------|------------------|--------------|-5~---|
            

comments powered by Disqus
↑ Back to top | Paramore Tabs for Brighter. Lyrics for acoustic guitar and electric guitar. Tablatures and chords are parodies/interpretations of the original songs. You may use it for private study, scholarship, research or language learning purposes only