» » »

Paramita, Takipsilim Tabs (ver.2)

Artists:  A B C D E F G H I J K L M N O P Q R S T U V W X Y Z # 

Takipsilim Tabs (ver.2)

Paramita Tabs
 Rating:
4/5 (4 votes)
Takipsilim lessons Tabs too difficult? Try these video lessons and learn fast
                  asa C to
intro: C9 tapos nasa bar chord ata na D knuha yung plucking

e---------------------------------------------------------|
b---------------------------------------------------------|
g--s9-9-9-9-9-7-7---17-17-17--s12-12----------------------|
d---------------------------------------------------------|
a---------------------------------------------------------|
e---------------------------------------------------------|

tas sa verse

    c9  at a/g bato? bsta to
e----3--------3---------------------------------------------|
b----3--------3---------------------------------------------|
g----0--------2---------------------------------------------| my plucking dn yan eh
d----2--------2---------------------------------------------|
a----3--------0---------------------------------------------|
e----0--------0---------------------------------------------|

chorus:
aaminin ko..                    ooh maghihintay ako...
   E   F#  G     C  <--octave-->      B   C   D
e-------------------------------------------------------------------|
b-------------------------------------------------------------------|
g--9--11---12---17-------------------16--17---19----parang----------|
d--x--x----x-----x-------------------x---x----x--------ganyan-------|
a--7--9----10---15-------------------14--15---17--------------------|
e-------------------------------------------------------------------|


2nd verse:
Em F#m at A na power chords. salamat kuya Normz!

tas
noon tayo lamang..
octaves
    A   C    D     E
e---------------------------------------------------------|
b---------------------------------------------------------|
g---------------------------------------------------------| parang ganyan yun
d--7---10---12----14--------------------------------------| paglaruan nyo nalang
a--x---x----x-----x---------------------------------------|
e--5---8----10----12--------------------------------------|

tas yung solo

e-----------------------------------------------------------------|
b-----------------------------------------------------------------|
g---------------------------------------12-14-15-15-17-15s17s15---|
d--17-17-17-15-14-12-12h14-12--12-14-15---------------------------|
a-----------------------------------------------------------------|
e-----------------------------------------------------------------|

e-----------------------------------------------------------------|
b-----------------------------------------------------------------|
g---------------------------------------12-14-15-15-17-15h17-15---|
d--17-17-17-15-14-12-12h14-12--12-14-15---------------------------|
a-----------------------------------------------------------------|
e-----------------------------------------------------------------|

e---------------------------------------------------------|
b---15-13-12-13-12-12-13-12-13-15-13-12-13-12-12-13-12-13-|
g---------------------------------------------------------|
d---------------------------------------------------------|
a---------------------------------------------------------|
e---------------------------------------------------------|

e---------------------------------------------------------|
b--15-13-12-13-12-12-13-15s17-17-15-----------------------|
g---------------------------------------------------------|
d---------------------------------------------------------|
a---------------------------------------------------------|
e---------------------------------------------------------|

e---15-15-15-13----15-15-15-13----15-15-15-13-------------|
b---------------13-------------13-------------13--s13-----|
g---------------------------------------------------------|
d---------------------------------------------------------|
a---------------------------------------------------------|
e---------------------------------------------------------|
prang ganyan
-tas verse-

-tas chorus-

tas ending

e---------------------------------------------------------|
b---------------------------------------------------------| jan lang nglalaro yun
g---19--17-16--14--12--12-14---16--17--------------19-----| diskartehan nyo nalang
d---x---x--x---x---x---x--x----x---x--tas----------x------|
a---17--15-14--12--10--10-12---14--15---tataaas----17-----|
e----------------------------------------yun-eh-----------|
tapos
e---------------------------------------------------------|
b---19--17--16--14--12--parang--ganyan--------------------|
g---x---x---x---x---x----------kayo--na-------------------|
d---17--15--14--12--10---------------bahala---------------|
a---------------------------------------------------------|
e---------------------------------------------------------|

questions?.. hnapin noy nlng ako.. frednster gnun
            
Submit corrections

comments powered by Disqus
↑ Back to top | Paramita Tabs for Takipsilim. Lyrics for acoustic guitar and electric guitar. Tablatures and chords are parodies/interpretations of the original songs. You may use it for private study, scholarship, research or language learning purposes only