» » »

Parachute, Kiss Me Slowly Tabs (ver.2)

Artists:  A B C D E F G H I J K L M N O P Q R S T U V W X Y Z # 

Kiss Me Slowly Tabs (ver.2)

Parachute Tabs
 Rating:
4/5 (9 votes)
Kiss Me Slowly lessons Tabs too difficult? Try these video lessons and learn fast
                I'm 97% sure this works. Hopefully. :P



E9- 022033
G-  320033
C9- x32033
Dsus- xx0233
D-xx0232




Capo 2nd fret

E9
E|-------3--------------------|
B|-------3------3-------------|
G|-----0----------0-----------|
D|---2---------------2--------|
A|-2--------------------------|
E|----------------------------|
   Stay with me...

         G
E|-----------3----------------|
B|-----------3----------------|
G|----0-----0-----------------|
D|---------0------------------|
A|--------2-------------------|
E|--2----3--------------------|
     Baby, Stay with me..

           C9
E|----------3-------------------|
B|----------3-------------------|
G|----0-----0-------------------|
D|--------2---------------------|
A|-2-----3----------------------|
E|------------------------------|
        Tonight Don't Leave

Me....

 Dsus4      D
E|------3----2------------------|
B|-----3-----3------------------|
G|----2------2------------------|
D|---0-------0------------------|
A|------------------------------|
E|------------------------------|
    Alone.....


>SAME TABS:<
Walk with me
Come and walk with me
To the edge of all we've ever known.




>>>Here You play with the chords except for C9. (You have to play the bass E ALONE) It's 
up to you anyway :)<<


      E9                      C9
I can see you there with the city lights
                 E|--------3---------------|
                 B|--------3---------------|
                 G|--------0---------------|
                 D|------------------------|
                 A|------------------------|
G                E|--2---------------------|
Forteenth floor     pale blue eyes
        C9        D
I can breathe you in



      E9                    C9
Two shadows standing by the bedroom door
                     E|------------------------|
                     B|------------------------|
                     G|------------------------|
                     D|------------------------|
                     A|------------------------|
G                    E|--2---------------------|
You know I could not    want you more
       C9
Then I did right then
       Dsus          D
As our heads leaned in


Chorus:
     C9
well I'm not sure what this going to be
                        E|------------------------|
                        B|------------------------|
                        G|------------------------|
                        D|------------------------|
                        A|------------------------|
    G                   E|--2---------------------|
But with my eyes clentched all I see
       C9                   G
Is the sky line through the window
        Dsus               D
The moon above you and the streets below
E9                       C9
Hold my breath as you're moving in
                E|------------------------|
                B|------------------------|
                G|------------------------|
                D|------------------------|
                A|------------------------|
G               E|--2---------------------|
Taste your lips and feel your skin'
         C9
When the time comes
     G               Dsus    D
Baby don’t run, just kiss me slowly.


<>

YOU CAN CHOOSE TO PLAY THE CHORDS OR THE TABS. Either way. lol



After the 2ND CHORUS: instrumental bridge:
E9-----G

          C9      Dsus(2 STRUMS) then switch quickly toD
Don't run away

E9----G----C9----Dsus(2 Strums) then switch quickly to D



E9                         G
  And it's hard to love again
                          C9
When the only way it's been
                          Dsus
When the only love you knew
             D
Just walked away.


E9                           G
  It gets something that you want
                         C9
Darling you don't have to run
                  D
You don't have to go


     E9
Just Stay with me,
     G
Baby stay with me...


THE SAME CHORDS FOR THE LAST 3 CHORUSES. :pppp



Audrey Jeih.
(Facebook)
            
Submit corrections

comments powered by Disqus
↑ Back to top | Parachute Tabs for Kiss Me Slowly. Lyrics for acoustic guitar and electric guitar. Tablatures and chords are parodies/interpretations of the original songs. You may use it for private study, scholarship, research or language learning purposes only