>
 >
Blues Local 1

Blues Local 1 Guitar Tabs

Pappo - Blues Local 1 chords, tabs, tablatures, lyrics

Guitar lessons | Add/correct | Request | Top 50 tabs Artists:  A B C D E F G H I J K L M N O P Q R S T U V W X Y Z 0-9

Blues Local 1 Guitar Tabs – Pappo

CD, Sheet music, Poster

Do you like Blues Local 1? Share with your friends now
TabsTabs v2
Pappo-Blues Local

INTRO

e|--13-15-13-15~~~~~~13-15-13~----------------------15-13----------------|
B|----------------------------15-13-----------12p15-------15-14-11/13p11-|
G|----------------------------------15-12--15----------------------------|
D|-----------------------------------------------------------------------|
A|-----------------------------------------------------------------------|
E|-----------------------------------------------------------------------|

e|-----------------------------------------------------------------------|
B|-----11-13-11h13b------------------------------------------------------|
G|--12-------------------------------------------------------------------|
D|-----------------------------------------------------------------------|
A|-----------------------------------------------------------------------|
E|-----------------------------------------------------------------------|

Anoche hubo fiesta en el club de Blues Local

e|-----------------------------------------------------------------------|
B|-----------------------------------------------------------------------|
G|--12-15-12-12--12-12-------12b-12--------------------------------------|
D|------------(15)-----15-15--------15-12--------------------------------|
A|----------------------------------------15-13--------------------------|
E|-----------------------------------------------------------------------|

Anoche hubo fiesta en el club de Blues Local

e|-----------------------------------------------------------------------|
B|------------8------------8---------------------------------------------|
G|----------7------------7-----7—10b~~~~~~-------------------------------|
D|-----8-10---------8-10-------------------------------------------------|
A|--10-----------10------------------------------------------------------|
E|-----------------------------------------------------------------------|


Sentados en una mesa con amigos de verdad

e|-----------------------------------------------------------------------|
B|-----------15----------------------------------------------------------|
G|-----15/17----17-15----17-17-15----------------------------------------|
D|--17----------------17----------17-17~~~~~~~~~-------------------------|
A|-----------------------------------------------------------------------|
E|-----------------------------------------------------------------------|


Estábamos tomando, vino fino natural

e|------------------------13---------------------------------------------|
B|-----------/15-13-11-------11-13-11h13~~-------------------------------|
G|--12-15-12-----------12------------------------------------------------|
D|-----------------------------------------------------------------------|
A|-----------------------------------------------------------------------|
E|-----------------------------------------------------------------------|


Estábamos tomando, vino fino natural

e|-----------------------------------------------------------------------|
B|--/666666-/666666------------------------------------------------------|
G|-------------------7-7-5-----------------------------------------------|
D|-------------------------8-5-------------------------------------------|
A|-----------------------------------------------------------------------|
E|-----------------------------------------------------------------------|

Que buena estuvo la fiesta en el club de Blues Local

e|-----------------------------------------------------------------------|
B|-----------------------------------/15/13-11-13-h15--------------------|
G|--12-15-12-12----12-15-12-12----12-------------------12-15-(12)--------|
D|-----------------------------------------------------------------------|
A|-----------------------------------------------------------------------|
E|-----------------------------------------------------------------------|

e|------------------------------------------------------------------------|
B|--/15-11-13-12-13~~-----------------------------------/15-11b-----------|
G|-------------------12-12-15-12----12-15-12-15----15-15------------------|
D|-------------------------------15-------------12------------------------|
A|------------------------------------------------------------------------|
E|------------------------------------------------------------------------|

e|-----------------------------------------------------------------------|
B|--------12-13-12-13-12-13-12--13/15/13-11------------------------------|
G|--12-15-----------------------------------12-12---------12----12-------|
D|--------------------------------------------------12-15---(15)---------|
A|-----------------------------------------------------------------------|
E|-----------------------------------------------------------------------|

e|------------------------------------------------------------------------|
B|------------------------------------------------------------------------|
G|-----------------------------------------12-----------------------------|
D|--17-15-------------------------------12----15--------------------------|
A|--------17-16-15/13----15-13----13-14----------15-15-13~~~~~~~~~~~~~~~~-|
E|--------------------15-------15-----------------------------------------|

e|-----------------------------------------------------------------------|
B|--------------------------/17-11-13/15/13-11-13-11h13------------------|
G|--12-12-12-12-15-12----12-----------------------------12-15-12----12---|
D|--------------------15-----------------------------------------15------|
A|-----------------------------------------------------------------------|
E|-----------------------------------------------------------------------|

e|-----------------------------------------------------------------------|
B|-----------------------------------------------------------------------|
G|-----12----------------------------------------------------------------|
D|-12~----15-12--------------12------------------------------------------|
A|--------------16-15-13-------------------------------------------------|
E|-----------------------15-----15-10-10~~~~~~~~~~~~~~~~-----------------|


Recordé que me dijiste que quería regresar

e|-----------------------------------------------------------------------|
B|---------------------15-12---------------------------------------------|
G|--12-15b-12-12---12--------15-12-12-15b--------------------------------|
D|-----------------------------------------------------------------------|
A|-----------------------------------------------------------------------|
E|-----------------------------------------------------------------------|

Recordé que me dijiste que quería regresar

e|-----------------------------------------------------------------------|
B|--------13-13/15/13-11-13-13-11b~~~~~~~~-------------------------------|
G|--12-15----------------------------------------------------------------|
D|-----------------------------------------------------------------------|
A|-----------------------------------------------------------------------|
E|-----------------------------------------------------------------------|

Siempre te estaré esperando en el club de Blues Local

e|-------------------------------------------------13-15-13-15~~~~~~-----|
B|----------13-13/15/13-11-13-13-11--------------------------------------|
G|--(15)-12-------------------------12-----------------------------------|
D|-------------------------------------12-12---(12)----------------------|
A|-----------------------------------------------------------------------|
E|-----------------------------------------------------------------------|

e|----13*15-15-13----13-15---------------------15-13-13--13-13-15-13-15~~-|
B|-15-------------15-------11-11---------12*15---------15-----------------|
G|-------------------------------12~~-15----------------------------------|
D|------------------------------------------------------------------------|
A|------------------------------------------------------------------------|
E|------------------------------------------------------------------------|

e|--15-13----13-13h15-15-13----13-13h15-13-----------------------------13-|
B|--------15----------------15-------------15-14-13--------------12-15----|
G|--------------------------------------------------15~~~--12-15----------|
D|------------------------------------------------------------------------|
A|------------------------------------------------------------------------|
E|------------------------------------------------------------------------|

e|--15-13--------------------15-13----17-15-18-15-17-15-13--13--13-13h15-|
B|--------15-14-13--------15-------15---------------------15--15---------|
G|-----------------15~~--------------------------------------------------|
D|-----------------------------------------------------------------------|
A|-----------------------------------------------------------------------|
E|-----------------------------------------------------------------------|

e|-15-13-----------------------------------15-/18-15-13------------------|
B|-------15-14-13-------13-----------13-15--------------15-13-11---------|
G|----------------15-12----15-12--15-----------------------------12------|
D|------------------------------------------------------------------12---|
A|-----------------------------------------------------------------------|
E|-----------------------------------------------------------------------|

Anoche hubo fiesta en el club de Blues Local

e|--15-15-15-15-18-15-15-15-15-18----------------------------------------|
B|-----------------------------------------------------------------------|
G|-----------------------------------------------------------------------|
D|-----------------------------------------------------------------------|
A|-----------------------------------------------------------------------|
E|-----------------------------------------------------------------------|

Anoche hubo fiesta en el club del Blues Local

e|-----------------------------------------------------------------------|
B|-----------------------------------------------------------------------|
G|-----12----------12----12--12------------------------------------------|
D|-/12~~--15-12-12----12--------15-12------------------------------------|
A|------------------------------------15-12------------------------------|
E|-----------------------------------------------------------------------|




Sentados en una mesa con amigos de verdad

e|-----------------------------------------------------------------------|
B|--------13-13/15/13-11-13-13-11----------------------------------------|
G|--12-15--------------------------12------------------------------------|
D|-----------------------------------------------------------------------|
A|-------------------------------------13~~*14~~~~~///-------------------|
E|-----------------------------------------------------------------------|


* ligato
/ slide
h Amér. On
p pulling off
~ vibrato
b bend,





Comments


Popular Pappo tabs & chords
Desconfio Chords
Algo Ha Cambiado Tabs
Banquero Blues Tabs
Blues Local Tabs
Gato De La Calle Negra Tabs
Juntos A La Par Tabs
Pajaro Metalico Tabs
Rock And Roll Y Fiebre Intro Tabs
Una Casa Con 10 Pinos Tabs
Tren De Las 16 Ukulele


Song lyrics



↑ Back to top | Tablatures and chords are parodies/interpretations of the original songs. You may use it for private study, scholarship, research or language learning purposes only
© 2014 AZChords.com Contact us | Privacy policy | DMCA | Add/correct tabs | Request tabs | Top 50 tabs