>
 >
Fire

Fire Bass Tabs

Papa Roach - Fire chords, tabs, tablatures, lyrics

Guitar lessons | Add/correct | Request | Top 50 tabs Artists:  A B C D E F G H I J K L M N O P Q R S T U V W X Y Z 0-9

Fire Bass Tabs – Papa Roach

CD, Sheet music, Poster

Do you like Fire? Share with your friends now
Bass TabsTabsTabs v2Tabs v3
Multiple Tunings - i have and play loads of Papa Roach on a 5 String, but this is 
easily played on a 4....
Very easy song in my opinion, and not too hard to memorise. 

Intro:
G|-18h20-18---------18h20-18---------18h20-18---------18h20-18-------|
D|----------19-21------------19-17------------19-21------------19-17\|
A|-------------------------------------------------------------------|
E|-------------------------------------------------------------------|

G|------------------11h13-11-----------------------------------------|
D|\11h13-11------------------12-14--11h13-11---------11h13-11--------|
A|----------12-14----------------------------12-14------------12-10--|
E|-------------------------------------------------------------------|

Verse 1:
"Die a Little...":
G|------------------11h13-11--------------------------11h13-11-------|
D|-11h13-11------------------12-14---11h13-11------------------12----|
A|----------12-14-----------------------------12-14---------------10-|
E|-------------------------------------------------------------------|

"You Don't Love me...":
G|---------------11h13-11--------------------------------------------------|
D|------------------------12-14---11h13-11---------11h13-11----------------|
A|-10-10-12-14-----------------------------12-14------------12-14---10-h12\|
E|-------------------------------------------------------------------------|

"Make it up...":
G|-----------------------------------------------------------------------------| Throw a quick slide
D|-----------------------------------------------------------------------------| up to A15 and back 
A|-----------------------------------------------------------------------------| here if you want.
E|-7--7-7--3--3-3--7--7-7--3--3-3--7--7-7--15--15-15--\7--7-7--3-3-3-3-3-3-3-3-|

Pre Chorus (Fly around...):
G|-------------|
D|-------------|
A|----9------5-|
E|-7-----3-3---| X4
B|-------------|

Chorus (play with what ever rhythm you want:P):
5 Str:			   4 Str Standard		 	Drop D:
G|------------------|	  G|---------------------|	G|------------------|
D|------------------|	  D|---------------------|	D|------------------|
A|------------------|	  A|-10---5---7---10--12-|	A|------------------|
E|-3-----------3--5-|	  E|---------------------|	D|-5---0---2---5--7-|
B|-----3---5--------|

Verse 2:
G|------------------11h13-11--------------------------11h13-11---------|
D|-11h13-11------------------12-14---11h13-11------------------12------|
A|----------12-14-----------------------------12-14---------------10---|
E|---------------------------------------------------------------------|

G|---------------11h13-11--------------------------------------------------|
D|------------------------12-14---11h13-11---------11h13-11----------------|
A|-10-10-12-14-----------------------------12-14------------12-10---10-h12\|
E|-------------------------------------------------------------------------|

"When i tell you..."		     "You're a diamond..."
G|---------------------------------| |Mute all strings and tap your palm |
D|---------------------------------| | gently if you want to,            |
A|---------------------------------| |otherwise, bass remains silent     |
E|-7--7-7--3--3-3--7--7-7--3--3-3--| |                                   |

Repeat Pre Chorus and Chorus Twice. Then Pre Chorus once more.

Solo:
G|-----------------|    
D|-----------------|	
A|-----------------|	
E|-7---5---3---5---| X2	
Or if you'd rather play the Guitar solo:
G|-----------------------------------------|
D|-9--7-9-11--9-11-12--11-12-14--14~>14-12-|
A|-----------------------------------------|
E|-----------------------------------------|

G|-11-12-11--------11-12-11-------11-12-11-----------|
D|----------12-14-----------12-9-----------12-14-14-/|
A|---------------------------------------------------|
E|---------------------------------------------------|

Repeat Pre Chorus Twice
Repeat Pre Chorus a final time


There's a couple of bits I'm not 100% on, but its close enough for you to get your 
own interpretation from.





Comments


Popular Papa Roach tabs & chords
Born With Nothing Die With Everything Bass Tabs
July 3 Bass Tabs
Liquid Diet Bass Tabs
Revenge Bass Tabs
Time And Time Again 2 Bass Tabs
Tony Hawk 2 Song Bass Tabs
Forever 2 Tabs
Thrown Away Tabs
Tight Rope Tabs
Forever Accoustic Ukulele


Song lyrics



↑ Back to top | Tablatures and chords are parodies/interpretations of the original songs. You may use it for private study, scholarship, research or language learning purposes only
© 2014 AZChords.com Contact us | Privacy policy | DMCA | Add/correct tabs | Request tabs | Top 50 tabs